ISO-10303-21;
HEADER;
/* Generated by software containing ST-Developer
 * from STEP Tools, Inc. (www.steptools.com) 
 */

FILE_DESCRIPTION(
/* description */ ('Anschlussgewindedichtring M75'),
/* implementation_level */ '2;1');

FILE_NAME(
/* name */ 
'Y:\\Produkte\\Produktdaten_Produktdarstellungen\\Produktdarstellungen
_Bilder-3DModelle-etc\\3D-Modelle\\Kundenversionen\\Eaton\\Capri_SL\\R
ST-SL\\AGDR-Fiber\\Metrisch\\00227545-RST.stp',
/* time_stamp */ '2020-10-07T13:07:22+02:00',
/* author */ ('sl'),
/* organization */ ('RST'),
/* preprocessor_version */ 'ST-DEVELOPER v16.5',
/* originating_system */ 'Autodesk Inventor 2017',
/* authorisation */ '');

FILE_SCHEMA (('AUTOMOTIVE_DESIGN { 1 0 10303 214 3 1 1 }'));
ENDSEC;

DATA;
#10=MECHANICAL_DESIGN_GEOMETRIC_PRESENTATION_REPRESENTATION('',(#13),#109);
#11=SHAPE_REPRESENTATION_RELATIONSHIP('SRR','None',#118,#12);
#12=ADVANCED_BREP_SHAPE_REPRESENTATION('',(#14),#108);
#13=STYLED_ITEM('',(#127),#14);
#14=MANIFOLD_SOLID_BREP('Volumenk\X\F6rper1',#59);
#15=PLANE('',#73);
#16=PLANE('',#74);
#17=FACE_BOUND('',#26,.T.);
#18=FACE_BOUND('',#28,.T.);
#19=FACE_BOUND('',#30,.T.);
#20=FACE_BOUND('',#32,.T.);
#21=FACE_OUTER_BOUND('',#25,.T.);
#22=FACE_OUTER_BOUND('',#27,.T.);
#23=FACE_OUTER_BOUND('',#29,.T.);
#24=FACE_OUTER_BOUND('',#31,.T.);
#25=EDGE_LOOP('',(#45));
#26=EDGE_LOOP('',(#46));
#27=EDGE_LOOP('',(#47));
#28=EDGE_LOOP('',(#48));
#29=EDGE_LOOP('',(#49));
#30=EDGE_LOOP('',(#50));
#31=EDGE_LOOP('',(#51));
#32=EDGE_LOOP('',(#52));
#33=CIRCLE('',#68,37.5);
#34=CIRCLE('',#69,37.5);
#35=CIRCLE('',#71,47.);
#36=CIRCLE('',#72,47.);
#37=VERTEX_POINT('',#95);
#38=VERTEX_POINT('',#97);
#39=VERTEX_POINT('',#100);
#40=VERTEX_POINT('',#102);
#41=EDGE_CURVE('',#37,#37,#33,.T.);
#42=EDGE_CURVE('',#38,#38,#34,.T.);
#43=EDGE_CURVE('',#39,#39,#35,.T.);
#44=EDGE_CURVE('',#40,#40,#36,.T.);
#45=ORIENTED_EDGE('',*,*,#41,.F.);
#46=ORIENTED_EDGE('',*,*,#42,.F.);
#47=ORIENTED_EDGE('',*,*,#43,.F.);
#48=ORIENTED_EDGE('',*,*,#44,.F.);
#49=ORIENTED_EDGE('',*,*,#44,.T.);
#50=ORIENTED_EDGE('',*,*,#42,.T.);
#51=ORIENTED_EDGE('',*,*,#43,.T.);
#52=ORIENTED_EDGE('',*,*,#41,.T.);
#53=CYLINDRICAL_SURFACE('',#67,37.5);
#54=CYLINDRICAL_SURFACE('',#70,47.);
#55=ADVANCED_FACE('',(#21,#17),#53,.F.);
#56=ADVANCED_FACE('',(#22,#18),#54,.T.);
#57=ADVANCED_FACE('',(#23,#19),#15,.F.);
#58=ADVANCED_FACE('',(#24,#20),#16,.T.);
#59=CLOSED_SHELL('',(#55,#56,#57,#58));
#60=DATE_TIME_ROLE('creation_date');
#61=APPLIED_DATE_AND_TIME_ASSIGNMENT(#62,#60,(#120));
#62=DATE_AND_TIME(#63,#64);
#63=CALENDAR_DATE(2020,6,10);
#64=LOCAL_TIME(22,0,0.,#65);
#65=COORDINATED_UNIVERSAL_TIME_OFFSET(0,0,.BEHIND.);
#66=AXIS2_PLACEMENT_3D('placement',#93,#75,#76);
#67=AXIS2_PLACEMENT_3D('',#94,#77,#78);
#68=AXIS2_PLACEMENT_3D('',#96,#79,#80);
#69=AXIS2_PLACEMENT_3D('',#98,#81,#82);
#70=AXIS2_PLACEMENT_3D('',#99,#83,#84);
#71=AXIS2_PLACEMENT_3D('',#101,#85,#86);
#72=AXIS2_PLACEMENT_3D('',#103,#87,#88);
#73=AXIS2_PLACEMENT_3D('',#104,#89,#90);
#74=AXIS2_PLACEMENT_3D('',#105,#91,#92);
#75=DIRECTION('axis',(0.,0.,1.));
#76=DIRECTION('refdir',(1.,0.,0.));
#77=DIRECTION('center_axis',(0.,0.,1.));
#78=DIRECTION('ref_axis',(-1.,0.,0.));
#79=DIRECTION('center_axis',(0.,0.,-1.));
#80=DIRECTION('ref_axis',(-1.,0.,0.));
#81=DIRECTION('center_axis',(0.,0.,1.));
#82=DIRECTION('ref_axis',(-1.,0.,0.));
#83=DIRECTION('center_axis',(0.,0.,1.));
#84=DIRECTION('ref_axis',(-1.,0.,0.));
#85=DIRECTION('center_axis',(0.,0.,1.));
#86=DIRECTION('ref_axis',(-1.,0.,0.));
#87=DIRECTION('center_axis',(0.,0.,-1.));
#88=DIRECTION('ref_axis',(-1.,0.,0.));
#89=DIRECTION('center_axis',(0.,0.,1.));
#90=DIRECTION('ref_axis',(1.,0.,0.));
#91=DIRECTION('center_axis',(0.,0.,1.));
#92=DIRECTION('ref_axis',(1.,0.,0.));
#93=CARTESIAN_POINT('',(0.,0.,0.));
#94=CARTESIAN_POINT('Origin',(0.,0.,0.));
#95=CARTESIAN_POINT('',(37.5,4.59242549680258E-15,2.));
#96=CARTESIAN_POINT('Origin',(0.,0.,2.));
#97=CARTESIAN_POINT('',(37.5,4.59242549680258E-15,0.));
#98=CARTESIAN_POINT('Origin',(0.,0.,0.));
#99=CARTESIAN_POINT('Origin',(0.,0.,0.));
#100=CARTESIAN_POINT('',(47.,5.75583995599256E-15,2.));
#101=CARTESIAN_POINT('Origin',(0.,0.,2.));
#102=CARTESIAN_POINT('',(47.,5.75583995599256E-15,0.));
#103=CARTESIAN_POINT('Origin',(0.,0.,0.));
#104=CARTESIAN_POINT('Origin',(-5.51896351236179E-15,-6.29913772836968E-16,
0.));
#105=CARTESIAN_POINT('Origin',(-5.51896351236179E-15,-6.29913772836968E-16,
2.));
#106=UNCERTAINTY_MEASURE_WITH_UNIT(LENGTH_MEASURE(0.01),#110,
'DISTANCE_ACCURACY_VALUE',
'Maximum model space distance between geometric entities at asserted c
onnectivities');
#107=UNCERTAINTY_MEASURE_WITH_UNIT(LENGTH_MEASURE(1.E-6),#110,
'DISTANCE_ACCURACY_VALUE',
'Maximum model space distance between geometric entities at asserted c
onnectivities');
#108=(
GEOMETRIC_REPRESENTATION_CONTEXT(3)
GLOBAL_UNCERTAINTY_ASSIGNED_CONTEXT((#106))
GLOBAL_UNIT_ASSIGNED_CONTEXT((#110,#113,#111))
REPRESENTATION_CONTEXT('','3D')
);
#109=(
GEOMETRIC_REPRESENTATION_CONTEXT(3)
GLOBAL_UNCERTAINTY_ASSIGNED_CONTEXT((#107))
GLOBAL_UNIT_ASSIGNED_CONTEXT((#110,#113,#111))
REPRESENTATION_CONTEXT('','3D')
);
#110=(
LENGTH_UNIT()
NAMED_UNIT(*)
SI_UNIT(.MILLI.,.METRE.)
);
#111=(
NAMED_UNIT(*)
SI_UNIT($,.STERADIAN.)
SOLID_ANGLE_UNIT()
);
#112=DIMENSIONAL_EXPONENTS(0.,0.,0.,0.,0.,0.,0.);
#113=(
CONVERSION_BASED_UNIT('degree',#115)
NAMED_UNIT(#112)
PLANE_ANGLE_UNIT()
);
#114=(
NAMED_UNIT(*)
PLANE_ANGLE_UNIT()
SI_UNIT($,.RADIAN.)
);
#115=PLANE_ANGLE_MEASURE_WITH_UNIT(PLANE_ANGLE_MEASURE(0.01745329252),#114);
#116=SHAPE_DEFINITION_REPRESENTATION(#117,#118);
#117=PRODUCT_DEFINITION_SHAPE('',$,#120);
#118=SHAPE_REPRESENTATION('',(#66),#108);
#119=PRODUCT_DEFINITION_CONTEXT('part definition',#124,'design');
#120=PRODUCT_DEFINITION('00227545',
'Anschlussgewindedichtring-01-BT-0009-00227545',#121,#119);
#121=PRODUCT_DEFINITION_FORMATION('',$,#126);
#122=PRODUCT_RELATED_PRODUCT_CATEGORY(
'Anschlussgewindedichtring-01-BT-0009-00227545',
'Anschlussgewindedichtring-01-BT-0009-00227545',(#126));
#123=APPLICATION_PROTOCOL_DEFINITION('international standard',
'automotive_design',2009,#124);
#124=APPLICATION_CONTEXT(
'Core Data for Automotive Mechanical Design Process');
#125=PRODUCT_CONTEXT('part definition',#124,'mechanical');
#126=PRODUCT('00227545','Anschlussgewindedichtring-01-BT-0009-00227545',
'Anschlussgewindedichtring M75',(#125));
#127=PRESENTATION_STYLE_ASSIGNMENT((#128));
#128=SURFACE_STYLE_USAGE(.BOTH.,#129);
#129=SURFACE_SIDE_STYLE('',(#130));
#130=SURFACE_STYLE_FILL_AREA(#131);
#131=FILL_AREA_STYLE('',(#132));
#132=FILL_AREA_STYLE_COLOUR('',#133);
#133=COLOUR_RGB('',0.313725490196078,0.701960784313725,0.76078431372549);
ENDSEC;
END-ISO-10303-21;
