ISO-10303-21;
HEADER;
/* Generated by software containing ST-Developer
 * from STEP Tools, Inc. (www.steptools.com) 
 */

FILE_DESCRIPTION(
/* description */ ('Schutzkappe f\X\FCr ADE N\X\B04'),
/* implementation_level */ '2;1');

FILE_NAME(
/* name */ 
'Y:\\Produkte\\Produktdaten_Produktdarstellungen\\Produktdarstellungen
_Bilder-3DModelle-etc\\3D-Modelle\\Kundenversionen\\Eaton\\Capri_SL\\R
ST-SL\\Shrouds\\00506040-RST.stp',
/* time_stamp */ '2020-10-28T12:29:42+01:00',
/* author */ ('sl'),
/* organization */ (''),
/* preprocessor_version */ 'ST-DEVELOPER v16.5',
/* originating_system */ 'Autodesk Inventor 2017',
/* authorisation */ '');

FILE_SCHEMA (('AUTOMOTIVE_DESIGN { 1 0 10303 214 3 1 1 }'));
ENDSEC;

DATA;
#10=MECHANICAL_DESIGN_GEOMETRIC_PRESENTATION_REPRESENTATION('',(#13),#315);
#11=SHAPE_REPRESENTATION_RELATIONSHIP('SRR','None',#324,#12);
#12=ADVANCED_BREP_SHAPE_REPRESENTATION('',(#14),#314);
#13=STYLED_ITEM('',(#333),#14);
#14=MANIFOLD_SOLID_BREP('Volumenk\X\F6rper2',#171);
#15=PLANE('',#191);
#16=PLANE('',#205);
#17=PLANE('',#207);
#18=CYLINDRICAL_SURFACE('',#184,9.30000000000301);
#19=CYLINDRICAL_SURFACE('',#197,8.);
#20=CONICAL_SURFACE('',#182,7.31138538565501,80.0000000013745);
#21=CONICAL_SURFACE('',#189,2.74999999999999,29.9972265396546);
#22=CONICAL_SURFACE('',#195,6.25,80.);
#23=CONICAL_SURFACE('',#203,3.53668403688062,29.997226540199);
#24=FACE_BOUND('',#53,.T.);
#25=FACE_BOUND('',#55,.T.);
#26=FACE_BOUND('',#57,.T.);
#27=FACE_BOUND('',#59,.T.);
#28=FACE_BOUND('',#61,.T.);
#29=FACE_BOUND('',#64,.T.);
#30=FACE_BOUND('',#66,.T.);
#31=FACE_BOUND('',#68,.T.);
#32=FACE_BOUND('',#70,.T.);
#33=FACE_BOUND('',#72,.T.);
#34=FACE_BOUND('',#74,.T.);
#35=FACE_BOUND('',#77,.T.);
#36=FACE_BOUND('',#79,.T.);
#37=FACE_OUTER_BOUND('',#52,.T.);
#38=FACE_OUTER_BOUND('',#54,.T.);
#39=FACE_OUTER_BOUND('',#56,.T.);
#40=FACE_OUTER_BOUND('',#58,.T.);
#41=FACE_OUTER_BOUND('',#60,.T.);
#42=FACE_OUTER_BOUND('',#62,.T.);
#43=FACE_OUTER_BOUND('',#63,.T.);
#44=FACE_OUTER_BOUND('',#65,.T.);
#45=FACE_OUTER_BOUND('',#67,.T.);
#46=FACE_OUTER_BOUND('',#69,.T.);
#47=FACE_OUTER_BOUND('',#71,.T.);
#48=FACE_OUTER_BOUND('',#73,.T.);
#49=FACE_OUTER_BOUND('',#75,.T.);
#50=FACE_OUTER_BOUND('',#76,.T.);
#51=FACE_OUTER_BOUND('',#78,.T.);
#52=EDGE_LOOP('',(#122));
#53=EDGE_LOOP('',(#123));
#54=EDGE_LOOP('',(#124));
#55=EDGE_LOOP('',(#125));
#56=EDGE_LOOP('',(#126));
#57=EDGE_LOOP('',(#127));
#58=EDGE_LOOP('',(#128));
#59=EDGE_LOOP('',(#129));
#60=EDGE_LOOP('',(#130));
#61=EDGE_LOOP('',(#131));
#62=EDGE_LOOP('',(#132));
#63=EDGE_LOOP('',(#133));
#64=EDGE_LOOP('',(#134));
#65=EDGE_LOOP('',(#135));
#66=EDGE_LOOP('',(#136));
#67=EDGE_LOOP('',(#137));
#68=EDGE_LOOP('',(#138));
#69=EDGE_LOOP('',(#139));
#70=EDGE_LOOP('',(#140));
#71=EDGE_LOOP('',(#141));
#72=EDGE_LOOP('',(#142));
#73=EDGE_LOOP('',(#143));
#74=EDGE_LOOP('',(#144));
#75=EDGE_LOOP('',(#145));
#76=EDGE_LOOP('',(#146));
#77=EDGE_LOOP('',(#147));
#78=EDGE_LOOP('',(#148));
#79=EDGE_LOOP('',(#149));
#80=CIRCLE('',#180,9.30000000000301);
#81=CIRCLE('',#181,8.88682408882466);
#82=CIRCLE('',#183,5.55239697902448);
#83=CIRCLE('',#185,9.29999999996819);
#84=CIRCLE('',#187,0.711308729841467);
#85=CIRCLE('',#188,1.14433353273005);
#86=CIRCLE('',#190,4.38342549369185);
#87=CIRCLE('',#193,7.58682408883347);
#88=CIRCLE('',#194,8.);
#89=CIRCLE('',#196,4.72962620774697);
#90=CIRCLE('',#198,8.);
#91=CIRCLE('',#201,1.89493083519579);
#92=CIRCLE('',#202,1.46190603230958);
#93=CIRCLE('',#204,5.20619626495992);
#94=VERTEX_POINT('',#270);
#95=VERTEX_POINT('',#272);
#96=VERTEX_POINT('',#275);
#97=VERTEX_POINT('',#278);
#98=VERTEX_POINT('',#281);
#99=VERTEX_POINT('',#283);
#100=VERTEX_POINT('',#286);
#101=VERTEX_POINT('',#290);
#102=VERTEX_POINT('',#292);
#103=VERTEX_POINT('',#295);
#104=VERTEX_POINT('',#298);
#105=VERTEX_POINT('',#302);
#106=VERTEX_POINT('',#304);
#107=VERTEX_POINT('',#307);
#108=EDGE_CURVE('',#94,#94,#80,.T.);
#109=EDGE_CURVE('',#95,#95,#81,.T.);
#110=EDGE_CURVE('',#96,#96,#82,.T.);
#111=EDGE_CURVE('',#97,#97,#83,.T.);
#112=EDGE_CURVE('',#98,#98,#84,.T.);
#113=EDGE_CURVE('',#99,#99,#85,.T.);
#114=EDGE_CURVE('',#100,#100,#86,.T.);
#115=EDGE_CURVE('',#101,#101,#87,.T.);
#116=EDGE_CURVE('',#102,#102,#88,.T.);
#117=EDGE_CURVE('',#103,#103,#89,.T.);
#118=EDGE_CURVE('',#104,#104,#90,.T.);
#119=EDGE_CURVE('',#105,#105,#91,.T.);
#120=EDGE_CURVE('',#106,#106,#92,.T.);
#121=EDGE_CURVE('',#107,#107,#93,.T.);
#122=ORIENTED_EDGE('',*,*,#108,.T.);
#123=ORIENTED_EDGE('',*,*,#109,.T.);
#124=ORIENTED_EDGE('',*,*,#110,.F.);
#125=ORIENTED_EDGE('',*,*,#109,.F.);
#126=ORIENTED_EDGE('',*,*,#111,.T.);
#127=ORIENTED_EDGE('',*,*,#108,.F.);
#128=ORIENTED_EDGE('',*,*,#112,.T.);
#129=ORIENTED_EDGE('',*,*,#113,.T.);
#130=ORIENTED_EDGE('',*,*,#114,.F.);
#131=ORIENTED_EDGE('',*,*,#113,.F.);
#132=ORIENTED_EDGE('',*,*,#112,.F.);
#133=ORIENTED_EDGE('',*,*,#115,.T.);
#134=ORIENTED_EDGE('',*,*,#116,.T.);
#135=ORIENTED_EDGE('',*,*,#117,.F.);
#136=ORIENTED_EDGE('',*,*,#115,.F.);
#137=ORIENTED_EDGE('',*,*,#118,.F.);
#138=ORIENTED_EDGE('',*,*,#116,.F.);
#139=ORIENTED_EDGE('',*,*,#114,.T.);
#140=ORIENTED_EDGE('',*,*,#117,.T.);
#141=ORIENTED_EDGE('',*,*,#119,.T.);
#142=ORIENTED_EDGE('',*,*,#120,.T.);
#143=ORIENTED_EDGE('',*,*,#121,.F.);
#144=ORIENTED_EDGE('',*,*,#119,.F.);
#145=ORIENTED_EDGE('',*,*,#120,.F.);
#146=ORIENTED_EDGE('',*,*,#110,.T.);
#147=ORIENTED_EDGE('',*,*,#121,.T.);
#148=ORIENTED_EDGE('',*,*,#111,.F.);
#149=ORIENTED_EDGE('',*,*,#118,.T.);
#150=TOROIDAL_SURFACE('',#179,8.80000000000301,0.5);
#151=TOROIDAL_SURFACE('',#186,0.711308729841467,0.5);
#152=TOROIDAL_SURFACE('',#192,7.5,0.5);
#153=TOROIDAL_SURFACE('',#199,4.81645029658044,0.5);
#154=TOROIDAL_SURFACE('',#200,1.46190603230958,0.5);
#155=TOROIDAL_SURFACE('',#206,5.63922106784613,0.5);
#156=ADVANCED_FACE('',(#37,#24),#150,.T.);
#157=ADVANCED_FACE('',(#38,#25),#20,.T.);
#158=ADVANCED_FACE('',(#39,#26),#18,.T.);
#159=ADVANCED_FACE('',(#40,#27),#151,.F.);
#160=ADVANCED_FACE('',(#41,#28),#21,.F.);
#161=ADVANCED_FACE('',(#42),#15,.T.);
#162=ADVANCED_FACE('',(#43,#29),#152,.F.);
#163=ADVANCED_FACE('',(#44,#30),#22,.F.);
#164=ADVANCED_FACE('',(#45,#31),#19,.F.);
#165=ADVANCED_FACE('',(#46,#32),#153,.T.);
#166=ADVANCED_FACE('',(#47,#33),#154,.T.);
#167=ADVANCED_FACE('',(#48,#34),#23,.T.);
#168=ADVANCED_FACE('',(#49),#16,.T.);
#169=ADVANCED_FACE('',(#50,#35),#155,.F.);
#170=ADVANCED_FACE('',(#51,#36),#17,.T.);
#171=CLOSED_SHELL('',(#156,#157,#158,#159,#160,#161,#162,#163,#164,#165,
#166,#167,#168,#169,#170));
#172=DATE_TIME_ROLE('creation_date');
#173=APPLIED_DATE_AND_TIME_ASSIGNMENT(#174,#172,(#326));
#174=DATE_AND_TIME(#175,#176);
#175=CALENDAR_DATE(2020,27,10);
#176=LOCAL_TIME(23,0,0.,#177);
#177=COORDINATED_UNIVERSAL_TIME_OFFSET(0,0,.BEHIND.);
#178=AXIS2_PLACEMENT_3D('placement',#268,#208,#209);
#179=AXIS2_PLACEMENT_3D('',#269,#210,#211);
#180=AXIS2_PLACEMENT_3D('',#271,#212,#213);
#181=AXIS2_PLACEMENT_3D('',#273,#214,#215);
#182=AXIS2_PLACEMENT_3D('',#274,#216,#217);
#183=AXIS2_PLACEMENT_3D('',#276,#218,#219);
#184=AXIS2_PLACEMENT_3D('',#277,#220,#221);
#185=AXIS2_PLACEMENT_3D('',#279,#222,#223);
#186=AXIS2_PLACEMENT_3D('',#280,#224,#225);
#187=AXIS2_PLACEMENT_3D('',#282,#226,#227);
#188=AXIS2_PLACEMENT_3D('',#284,#228,#229);
#189=AXIS2_PLACEMENT_3D('',#285,#230,#231);
#190=AXIS2_PLACEMENT_3D('',#287,#232,#233);
#191=AXIS2_PLACEMENT_3D('',#288,#234,#235);
#192=AXIS2_PLACEMENT_3D('',#289,#236,#237);
#193=AXIS2_PLACEMENT_3D('',#291,#238,#239);
#194=AXIS2_PLACEMENT_3D('',#293,#240,#241);
#195=AXIS2_PLACEMENT_3D('',#294,#242,#243);
#196=AXIS2_PLACEMENT_3D('',#296,#244,#245);
#197=AXIS2_PLACEMENT_3D('',#297,#246,#247);
#198=AXIS2_PLACEMENT_3D('',#299,#248,#249);
#199=AXIS2_PLACEMENT_3D('',#300,#250,#251);
#200=AXIS2_PLACEMENT_3D('',#301,#252,#253);
#201=AXIS2_PLACEMENT_3D('',#303,#254,#255);
#202=AXIS2_PLACEMENT_3D('',#305,#256,#257);
#203=AXIS2_PLACEMENT_3D('',#306,#258,#259);
#204=AXIS2_PLACEMENT_3D('',#308,#260,#261);
#205=AXIS2_PLACEMENT_3D('',#309,#262,#263);
#206=AXIS2_PLACEMENT_3D('',#310,#264,#265);
#207=AXIS2_PLACEMENT_3D('',#311,#266,#267);
#208=DIRECTION('axis',(0.,0.,1.));
#209=DIRECTION('refdir',(1.,0.,0.));
#210=DIRECTION('center_axis',(-1.,0.,0.));
#211=DIRECTION('ref_axis',(0.,0.,1.));
#212=DIRECTION('center_axis',(-1.,0.,0.));
#213=DIRECTION('ref_axis',(0.,-1.,-1.83697019872103E-16));
#214=DIRECTION('center_axis',(1.,0.,0.));
#215=DIRECTION('ref_axis',(0.,-1.,-3.06161699786838E-17));
#216=DIRECTION('center_axis',(1.,0.,0.));
#217=DIRECTION('ref_axis',(0.,1.,0.));
#218=DIRECTION('center_axis',(-1.,0.,0.));
#219=DIRECTION('ref_axis',(0.,-1.,-3.06161699786838E-17));
#220=DIRECTION('center_axis',(-1.,0.,0.));
#221=DIRECTION('ref_axis',(0.,1.,0.));
#222=DIRECTION('center_axis',(-1.,0.,0.));
#223=DIRECTION('ref_axis',(0.,0.,1.));
#224=DIRECTION('center_axis',(-1.,0.,0.));
#225=DIRECTION('ref_axis',(0.,0.,1.));
#226=DIRECTION('center_axis',(-1.,0.,0.));
#227=DIRECTION('ref_axis',(0.,-1.,-1.83697019872103E-16));
#228=DIRECTION('center_axis',(1.,0.,0.));
#229=DIRECTION('ref_axis',(0.,-1.,-3.06161699786838E-17));
#230=DIRECTION('center_axis',(1.,0.,0.));
#231=DIRECTION('ref_axis',(0.,1.,0.));
#232=DIRECTION('center_axis',(-1.,0.,0.));
#233=DIRECTION('ref_axis',(0.,-1.,-3.06161699786838E-17));
#234=DIRECTION('center_axis',(1.,0.,0.));
#235=DIRECTION('ref_axis',(0.,0.,-1.));
#236=DIRECTION('center_axis',(-1.,0.,0.));
#237=DIRECTION('ref_axis',(0.,0.,1.));
#238=DIRECTION('center_axis',(-1.,0.,0.));
#239=DIRECTION('ref_axis',(0.,-1.,-3.06161699786838E-17));
#240=DIRECTION('center_axis',(1.,0.,0.));
#241=DIRECTION('ref_axis',(0.,-1.,-1.83697019872103E-16));
#242=DIRECTION('center_axis',(1.,0.,0.));
#243=DIRECTION('ref_axis',(0.,1.,0.));
#244=DIRECTION('center_axis',(1.,0.,0.));
#245=DIRECTION('ref_axis',(0.,-1.,-3.06161699786838E-17));
#246=DIRECTION('center_axis',(-1.,0.,0.));
#247=DIRECTION('ref_axis',(0.,1.,0.));
#248=DIRECTION('center_axis',(-1.,0.,0.));
#249=DIRECTION('ref_axis',(0.,0.,1.));
#250=DIRECTION('center_axis',(-1.,0.,0.));
#251=DIRECTION('ref_axis',(0.,0.,1.));
#252=DIRECTION('center_axis',(-1.,0.,0.));
#253=DIRECTION('ref_axis',(0.,0.,1.));
#254=DIRECTION('center_axis',(-1.,0.,0.));
#255=DIRECTION('ref_axis',(0.,-1.,-3.06161699786838E-17));
#256=DIRECTION('center_axis',(1.,0.,0.));
#257=DIRECTION('ref_axis',(0.,-1.,-1.83697019872103E-16));
#258=DIRECTION('center_axis',(1.,0.,0.));
#259=DIRECTION('ref_axis',(0.,1.,0.));
#260=DIRECTION('center_axis',(1.,0.,0.));
#261=DIRECTION('ref_axis',(0.,-1.,-3.06161699786838E-17));
#262=DIRECTION('center_axis',(-1.,0.,0.));
#263=DIRECTION('ref_axis',(0.,0.,1.));
#264=DIRECTION('center_axis',(-1.,0.,0.));
#265=DIRECTION('ref_axis',(0.,0.,1.));
#266=DIRECTION('center_axis',(1.,0.,0.));
#267=DIRECTION('ref_axis',(0.,0.,-1.));
#268=CARTESIAN_POINT('',(0.,0.,0.));
#269=CARTESIAN_POINT('Origin',(-28.6712797049627,0.,0.));
#270=CARTESIAN_POINT('',(-28.6712797049627,9.30000000000301,5.69460761603703E-16));
#271=CARTESIAN_POINT('Origin',(-28.6712797049627,0.,0.));
#272=CARTESIAN_POINT('',(-29.1636835814709,8.88682408882466,2.72080516874118E-15));
#273=CARTESIAN_POINT('Origin',(-29.1636835814709,0.,1.36040258437059E-15));
#274=CARTESIAN_POINT('Origin',(-29.4414759312531,0.,0.));
#275=CARTESIAN_POINT('',(-29.7516330460519,5.55239697902448,3.39986259397888E-16));
#276=CARTESIAN_POINT('Origin',(-29.7516330460519,0.,8.4996564849472E-16));
#277=CARTESIAN_POINT('Origin',(-14.5454147602777,0.,0.));
#278=CARTESIAN_POINT('',(0.,9.29999999996819,0.));
#279=CARTESIAN_POINT('Origin',(0.,0.,0.));
#280=CARTESIAN_POINT('Origin',(-34.18,0.,0.));
#281=CARTESIAN_POINT('',(-34.68,0.711308729841467,4.35550979602961E-17));
#282=CARTESIAN_POINT('Origin',(-34.68,0.,0.));
#283=CARTESIAN_POINT('',(-34.4299790392879,1.14433353273005,3.5035109950371E-16));
#284=CARTESIAN_POINT('Origin',(-34.4299790392879,0.,1.75175549751855E-16));
#285=CARTESIAN_POINT('Origin',(-31.6485722162398,0.,0.));
#286=CARTESIAN_POINT('',(-28.8190799737943,4.38342549369185,2.68407400007532E-16));
#287=CARTESIAN_POINT('Origin',(-28.8190799737943,0.,6.71018500018829E-16));
#288=CARTESIAN_POINT('Origin',(-34.68,0.999999999999989,0.));
#289=CARTESIAN_POINT('Origin',(-27.5804501844114,0.,0.));
#290=CARTESIAN_POINT('',(-28.0728540609175,7.58682408883347,4.64558991804197E-16));
#291=CARTESIAN_POINT('Origin',(-28.0728540609175,0.,1.16139747951049E-15));
#292=CARTESIAN_POINT('',(-27.5804501844114,8.,2.44929359829471E-15));
#293=CARTESIAN_POINT('Origin',(-27.5804501844114,0.,0.));
#294=CARTESIAN_POINT('Origin',(-28.3085722162398,0.,0.));
#295=CARTESIAN_POINT('',(-28.5766551365761,4.72962620774697,1.44803039912019E-15));
#296=CARTESIAN_POINT('Origin',(-28.5766551365761,0.,7.24015199560095E-16));
#297=CARTESIAN_POINT('Origin',(-14.,0.,0.));
#298=CARTESIAN_POINT('',(0.,8.,0.));
#299=CARTESIAN_POINT('Origin',(0.,0.,0.));
#300=CARTESIAN_POINT('Origin',(-29.0690590130822,0.,0.));
#301=CARTESIAN_POINT('Origin',(-35.4799999999597,0.,0.));
#302=CARTESIAN_POINT('',(-35.7299790392517,1.89493083519579,1.16031049096407E-16));
#303=CARTESIAN_POINT('Origin',(-35.7299790392517,0.,2.90077622741018E-16));
#304=CARTESIAN_POINT('',(-35.9799999999597,1.46190603230958,4.47579635780533E-16));
#305=CARTESIAN_POINT('Origin',(-35.9799999999597,0.,0.));
#306=CARTESIAN_POINT('Origin',(-32.8860611709343,0.,0.));
#307=CARTESIAN_POINT('',(-29.9940578832681,5.20619626495992,1.59393789790402E-15));
#308=CARTESIAN_POINT('Origin',(-29.9940578832681,0.,7.9696894895201E-16));
#309=CARTESIAN_POINT('Origin',(-35.9799999999597,0.,0.));
#310=CARTESIAN_POINT('Origin',(-30.2440369225601,0.,0.));
#311=CARTESIAN_POINT('Origin',(0.,9.29999999996819,0.));
#312=UNCERTAINTY_MEASURE_WITH_UNIT(LENGTH_MEASURE(0.01),#316,
'DISTANCE_ACCURACY_VALUE',
'Maximum model space distance between geometric entities at asserted c
onnectivities');
#313=UNCERTAINTY_MEASURE_WITH_UNIT(LENGTH_MEASURE(1.E-6),#316,
'DISTANCE_ACCURACY_VALUE',
'Maximum model space distance between geometric entities at asserted c
onnectivities');
#314=(
GEOMETRIC_REPRESENTATION_CONTEXT(3)
GLOBAL_UNCERTAINTY_ASSIGNED_CONTEXT((#312))
GLOBAL_UNIT_ASSIGNED_CONTEXT((#316,#319,#317))
REPRESENTATION_CONTEXT('','3D')
);
#315=(
GEOMETRIC_REPRESENTATION_CONTEXT(3)
GLOBAL_UNCERTAINTY_ASSIGNED_CONTEXT((#313))
GLOBAL_UNIT_ASSIGNED_CONTEXT((#316,#319,#317))
REPRESENTATION_CONTEXT('','3D')
);
#316=(
LENGTH_UNIT()
NAMED_UNIT(*)
SI_UNIT(.MILLI.,.METRE.)
);
#317=(
NAMED_UNIT(*)
SI_UNIT($,.STERADIAN.)
SOLID_ANGLE_UNIT()
);
#318=DIMENSIONAL_EXPONENTS(0.,0.,0.,0.,0.,0.,0.);
#319=(
CONVERSION_BASED_UNIT('degree',#321)
NAMED_UNIT(#318)
PLANE_ANGLE_UNIT()
);
#320=(
NAMED_UNIT(*)
PLANE_ANGLE_UNIT()
SI_UNIT($,.RADIAN.)
);
#321=PLANE_ANGLE_MEASURE_WITH_UNIT(PLANE_ANGLE_MEASURE(0.01745329252),#320);
#322=SHAPE_DEFINITION_REPRESENTATION(#323,#324);
#323=PRODUCT_DEFINITION_SHAPE('',$,#326);
#324=SHAPE_REPRESENTATION('',(#178),#314);
#325=PRODUCT_DEFINITION_CONTEXT('part definition',#330,'design');
#326=PRODUCT_DEFINITION('00506040','Schutzkappe-01-BT-0001-00506040',#327,
#325);
#327=PRODUCT_DEFINITION_FORMATION('',$,#332);
#328=PRODUCT_RELATED_PRODUCT_CATEGORY('Schutzkappe-01-BT-0001-00506040',
'Schutzkappe-01-BT-0001-00506040',(#332));
#329=APPLICATION_PROTOCOL_DEFINITION('international standard',
'automotive_design',2009,#330);
#330=APPLICATION_CONTEXT(
'Core Data for Automotive Mechanical Design Process');
#331=PRODUCT_CONTEXT('part definition',#330,'mechanical');
#332=PRODUCT('00506040','Schutzkappe-01-BT-0001-00506040',
'Schutzkappe f\X\FCr ADE N\X\B04',(#331));
#333=PRESENTATION_STYLE_ASSIGNMENT((#334));
#334=SURFACE_STYLE_USAGE(.BOTH.,#335);
#335=SURFACE_SIDE_STYLE('',(#336));
#336=SURFACE_STYLE_FILL_AREA(#337);
#337=FILL_AREA_STYLE('',(#338));
#338=FILL_AREA_STYLE_COLOUR('',#339);
#339=COLOUR_RGB('',0.250980392156863,0.250980392156863,0.250980392156863);
ENDSEC;
END-ISO-10303-21;
