ISO-10303-21;
HEADER;
/* Generated by software containing ST-Developer
 * from STEP Tools, Inc. (www.steptools.com) 
 */

FILE_DESCRIPTION(
/* description */ ('Schutzkappe f\X\FCr ADE N\X\B09'),
/* implementation_level */ '2;1');

FILE_NAME(
/* name */ 
'Y:\\Produkte\\Produktdaten_Produktdarstellungen\\Produktdarstellungen
_Bilder-3DModelle-etc\\3D-Modelle\\Kundenversionen\\Eaton\\Capri_SL\\R
ST-SL\\Shrouds\\00506090-RST.stp',
/* time_stamp */ '2020-10-28T13:20:49+01:00',
/* author */ ('sl'),
/* organization */ (''),
/* preprocessor_version */ 'ST-DEVELOPER v16.5',
/* originating_system */ 'Autodesk Inventor 2017',
/* authorisation */ '');

FILE_SCHEMA (('AUTOMOTIVE_DESIGN { 1 0 10303 214 3 1 1 }'));
ENDSEC;

DATA;
#10=MECHANICAL_DESIGN_GEOMETRIC_PRESENTATION_REPRESENTATION('',(#13),#349);
#11=SHAPE_REPRESENTATION_RELATIONSHIP('SRR','None',#358,#12);
#12=ADVANCED_BREP_SHAPE_REPRESENTATION('',(#14),#348);
#13=STYLED_ITEM('',(#367),#14);
#14=MANIFOLD_SOLID_BREP('Volumenk\X\F6rper2',#191);
#15=PLANE('',#211);
#16=PLANE('',#226);
#17=PLANE('',#229);
#18=CYLINDRICAL_SURFACE('',#204,27.6);
#19=CYLINDRICAL_SURFACE('',#218,26.);
#20=CYLINDRICAL_SURFACE('',#230,7.5);
#21=CONICAL_SURFACE('',#202,23.0562801745568,80.);
#22=CONICAL_SURFACE('',#209,13.25,30.002041204434);
#23=CONICAL_SURFACE('',#216,21.75,80.);
#24=CONICAL_SURFACE('',#224,14.2181413897102,30.0020412044341);
#25=FACE_BOUND('',#58,.T.);
#26=FACE_BOUND('',#60,.T.);
#27=FACE_BOUND('',#62,.T.);
#28=FACE_BOUND('',#64,.T.);
#29=FACE_BOUND('',#66,.T.);
#30=FACE_BOUND('',#68,.T.);
#31=FACE_BOUND('',#70,.T.);
#32=FACE_BOUND('',#72,.T.);
#33=FACE_BOUND('',#74,.T.);
#34=FACE_BOUND('',#76,.T.);
#35=FACE_BOUND('',#78,.T.);
#36=FACE_BOUND('',#80,.T.);
#37=FACE_BOUND('',#82,.T.);
#38=FACE_BOUND('',#84,.T.);
#39=FACE_BOUND('',#86,.T.);
#40=FACE_BOUND('',#88,.T.);
#41=FACE_OUTER_BOUND('',#57,.T.);
#42=FACE_OUTER_BOUND('',#59,.T.);
#43=FACE_OUTER_BOUND('',#61,.T.);
#44=FACE_OUTER_BOUND('',#63,.T.);
#45=FACE_OUTER_BOUND('',#65,.T.);
#46=FACE_OUTER_BOUND('',#67,.T.);
#47=FACE_OUTER_BOUND('',#69,.T.);
#48=FACE_OUTER_BOUND('',#71,.T.);
#49=FACE_OUTER_BOUND('',#73,.T.);
#50=FACE_OUTER_BOUND('',#75,.T.);
#51=FACE_OUTER_BOUND('',#77,.T.);
#52=FACE_OUTER_BOUND('',#79,.T.);
#53=FACE_OUTER_BOUND('',#81,.T.);
#54=FACE_OUTER_BOUND('',#83,.T.);
#55=FACE_OUTER_BOUND('',#85,.T.);
#56=FACE_OUTER_BOUND('',#87,.T.);
#57=EDGE_LOOP('',(#137));
#58=EDGE_LOOP('',(#138));
#59=EDGE_LOOP('',(#139));
#60=EDGE_LOOP('',(#140));
#61=EDGE_LOOP('',(#141));
#62=EDGE_LOOP('',(#142));
#63=EDGE_LOOP('',(#143));
#64=EDGE_LOOP('',(#144));
#65=EDGE_LOOP('',(#145));
#66=EDGE_LOOP('',(#146));
#67=EDGE_LOOP('',(#147));
#68=EDGE_LOOP('',(#148));
#69=EDGE_LOOP('',(#149));
#70=EDGE_LOOP('',(#150));
#71=EDGE_LOOP('',(#151));
#72=EDGE_LOOP('',(#152));
#73=EDGE_LOOP('',(#153));
#74=EDGE_LOOP('',(#154));
#75=EDGE_LOOP('',(#155));
#76=EDGE_LOOP('',(#156));
#77=EDGE_LOOP('',(#157));
#78=EDGE_LOOP('',(#158));
#79=EDGE_LOOP('',(#159));
#80=EDGE_LOOP('',(#160));
#81=EDGE_LOOP('',(#161));
#82=EDGE_LOOP('',(#162));
#83=EDGE_LOOP('',(#163));
#84=EDGE_LOOP('',(#164));
#85=EDGE_LOOP('',(#165));
#86=EDGE_LOOP('',(#166));
#87=EDGE_LOOP('',(#167));
#88=EDGE_LOOP('',(#168));
#89=CIRCLE('',#200,27.6);
#90=CIRCLE('',#201,26.7736481776669);
#91=CIRCLE('',#203,18.9717623896425);
#92=CIRCLE('',#205,27.6);
#93=CIRCLE('',#207,8.42267348105816);
#94=CIRCLE('',#208,9.28868107142399);
#95=CIRCLE('',#210,17.2668426278301);
#96=CIRCLE('',#212,7.5);
#97=CIRCLE('',#214,25.1736481776669);
#98=CIRCLE('',#215,26.);
#99=CIRCLE('',#217,17.959202040529);
#100=CIRCLE('',#219,26.);
#101=CIRCLE('',#222,10.2124035017309);
#102=CIRCLE('',#223,9.34639591136508);
#103=CIRCLE('',#225,18.2794029769436);
#104=CIRCLE('',#227,7.5);
#105=VERTEX_POINT('',#299);
#106=VERTEX_POINT('',#301);
#107=VERTEX_POINT('',#304);
#108=VERTEX_POINT('',#307);
#109=VERTEX_POINT('',#310);
#110=VERTEX_POINT('',#312);
#111=VERTEX_POINT('',#315);
#112=VERTEX_POINT('',#318);
#113=VERTEX_POINT('',#321);
#114=VERTEX_POINT('',#323);
#115=VERTEX_POINT('',#326);
#116=VERTEX_POINT('',#329);
#117=VERTEX_POINT('',#333);
#118=VERTEX_POINT('',#335);
#119=VERTEX_POINT('',#338);
#120=VERTEX_POINT('',#341);
#121=EDGE_CURVE('',#105,#105,#89,.T.);
#122=EDGE_CURVE('',#106,#106,#90,.T.);
#123=EDGE_CURVE('',#107,#107,#91,.T.);
#124=EDGE_CURVE('',#108,#108,#92,.T.);
#125=EDGE_CURVE('',#109,#109,#93,.T.);
#126=EDGE_CURVE('',#110,#110,#94,.T.);
#127=EDGE_CURVE('',#111,#111,#95,.T.);
#128=EDGE_CURVE('',#112,#112,#96,.T.);
#129=EDGE_CURVE('',#113,#113,#97,.T.);
#130=EDGE_CURVE('',#114,#114,#98,.T.);
#131=EDGE_CURVE('',#115,#115,#99,.T.);
#132=EDGE_CURVE('',#116,#116,#100,.T.);
#133=EDGE_CURVE('',#117,#117,#101,.T.);
#134=EDGE_CURVE('',#118,#118,#102,.T.);
#135=EDGE_CURVE('',#119,#119,#103,.T.);
#136=EDGE_CURVE('',#120,#120,#104,.T.);
#137=ORIENTED_EDGE('',*,*,#121,.T.);
#138=ORIENTED_EDGE('',*,*,#122,.T.);
#139=ORIENTED_EDGE('',*,*,#123,.F.);
#140=ORIENTED_EDGE('',*,*,#122,.F.);
#141=ORIENTED_EDGE('',*,*,#124,.T.);
#142=ORIENTED_EDGE('',*,*,#121,.F.);
#143=ORIENTED_EDGE('',*,*,#125,.T.);
#144=ORIENTED_EDGE('',*,*,#126,.T.);
#145=ORIENTED_EDGE('',*,*,#127,.F.);
#146=ORIENTED_EDGE('',*,*,#126,.F.);
#147=ORIENTED_EDGE('',*,*,#125,.F.);
#148=ORIENTED_EDGE('',*,*,#128,.T.);
#149=ORIENTED_EDGE('',*,*,#129,.T.);
#150=ORIENTED_EDGE('',*,*,#130,.T.);
#151=ORIENTED_EDGE('',*,*,#131,.F.);
#152=ORIENTED_EDGE('',*,*,#129,.F.);
#153=ORIENTED_EDGE('',*,*,#132,.F.);
#154=ORIENTED_EDGE('',*,*,#130,.F.);
#155=ORIENTED_EDGE('',*,*,#127,.T.);
#156=ORIENTED_EDGE('',*,*,#131,.T.);
#157=ORIENTED_EDGE('',*,*,#133,.T.);
#158=ORIENTED_EDGE('',*,*,#134,.T.);
#159=ORIENTED_EDGE('',*,*,#135,.F.);
#160=ORIENTED_EDGE('',*,*,#133,.F.);
#161=ORIENTED_EDGE('',*,*,#134,.F.);
#162=ORIENTED_EDGE('',*,*,#136,.F.);
#163=ORIENTED_EDGE('',*,*,#123,.T.);
#164=ORIENTED_EDGE('',*,*,#135,.T.);
#165=ORIENTED_EDGE('',*,*,#124,.F.);
#166=ORIENTED_EDGE('',*,*,#132,.T.);
#167=ORIENTED_EDGE('',*,*,#136,.T.);
#168=ORIENTED_EDGE('',*,*,#128,.F.);
#169=TOROIDAL_SURFACE('',#199,26.6,1.);
#170=TOROIDAL_SURFACE('',#206,8.42267348105816,1.);
#171=TOROIDAL_SURFACE('',#213,25.,1.);
#172=TOROIDAL_SURFACE('',#220,18.1328502181959,1.);
#173=TOROIDAL_SURFACE('',#221,9.34639591136508,1.);
#174=TOROIDAL_SURFACE('',#228,19.1454105673094,1.);
#175=ADVANCED_FACE('',(#41,#25),#169,.T.);
#176=ADVANCED_FACE('',(#42,#26),#21,.T.);
#177=ADVANCED_FACE('',(#43,#27),#18,.T.);
#178=ADVANCED_FACE('',(#44,#28),#170,.F.);
#179=ADVANCED_FACE('',(#45,#29),#22,.F.);
#180=ADVANCED_FACE('',(#46,#30),#15,.T.);
#181=ADVANCED_FACE('',(#47,#31),#171,.F.);
#182=ADVANCED_FACE('',(#48,#32),#23,.F.);
#183=ADVANCED_FACE('',(#49,#33),#19,.F.);
#184=ADVANCED_FACE('',(#50,#34),#172,.T.);
#185=ADVANCED_FACE('',(#51,#35),#173,.T.);
#186=ADVANCED_FACE('',(#52,#36),#24,.T.);
#187=ADVANCED_FACE('',(#53,#37),#16,.T.);
#188=ADVANCED_FACE('',(#54,#38),#174,.F.);
#189=ADVANCED_FACE('',(#55,#39),#17,.T.);
#190=ADVANCED_FACE('',(#56,#40),#20,.F.);
#191=CLOSED_SHELL('',(#175,#176,#177,#178,#179,#180,#181,#182,#183,#184,
#185,#186,#187,#188,#189,#190));
#192=DATE_TIME_ROLE('creation_date');
#193=APPLIED_DATE_AND_TIME_ASSIGNMENT(#194,#192,(#360));
#194=DATE_AND_TIME(#195,#196);
#195=CALENDAR_DATE(2020,27,10);
#196=LOCAL_TIME(23,0,0.,#197);
#197=COORDINATED_UNIVERSAL_TIME_OFFSET(0,0,.BEHIND.);
#198=AXIS2_PLACEMENT_3D('placement',#297,#231,#232);
#199=AXIS2_PLACEMENT_3D('',#298,#233,#234);
#200=AXIS2_PLACEMENT_3D('',#300,#235,#236);
#201=AXIS2_PLACEMENT_3D('',#302,#237,#238);
#202=AXIS2_PLACEMENT_3D('',#303,#239,#240);
#203=AXIS2_PLACEMENT_3D('',#305,#241,#242);
#204=AXIS2_PLACEMENT_3D('',#306,#243,#244);
#205=AXIS2_PLACEMENT_3D('',#308,#245,#246);
#206=AXIS2_PLACEMENT_3D('',#309,#247,#248);
#207=AXIS2_PLACEMENT_3D('',#311,#249,#250);
#208=AXIS2_PLACEMENT_3D('',#313,#251,#252);
#209=AXIS2_PLACEMENT_3D('',#314,#253,#254);
#210=AXIS2_PLACEMENT_3D('',#316,#255,#256);
#211=AXIS2_PLACEMENT_3D('',#317,#257,#258);
#212=AXIS2_PLACEMENT_3D('',#319,#259,#260);
#213=AXIS2_PLACEMENT_3D('',#320,#261,#262);
#214=AXIS2_PLACEMENT_3D('',#322,#263,#264);
#215=AXIS2_PLACEMENT_3D('',#324,#265,#266);
#216=AXIS2_PLACEMENT_3D('',#325,#267,#268);
#217=AXIS2_PLACEMENT_3D('',#327,#269,#270);
#218=AXIS2_PLACEMENT_3D('',#328,#271,#272);
#219=AXIS2_PLACEMENT_3D('',#330,#273,#274);
#220=AXIS2_PLACEMENT_3D('',#331,#275,#276);
#221=AXIS2_PLACEMENT_3D('',#332,#277,#278);
#222=AXIS2_PLACEMENT_3D('',#334,#279,#280);
#223=AXIS2_PLACEMENT_3D('',#336,#281,#282);
#224=AXIS2_PLACEMENT_3D('',#337,#283,#284);
#225=AXIS2_PLACEMENT_3D('',#339,#285,#286);
#226=AXIS2_PLACEMENT_3D('',#340,#287,#288);
#227=AXIS2_PLACEMENT_3D('',#342,#289,#290);
#228=AXIS2_PLACEMENT_3D('',#343,#291,#292);
#229=AXIS2_PLACEMENT_3D('',#344,#293,#294);
#230=AXIS2_PLACEMENT_3D('',#345,#295,#296);
#231=DIRECTION('axis',(0.,0.,1.));
#232=DIRECTION('refdir',(1.,0.,0.));
#233=DIRECTION('center_axis',(-1.,-1.8240891331026E-16,0.));
#234=DIRECTION('ref_axis',(0.,0.,1.));
#235=DIRECTION('center_axis',(-1.,-1.8240891331026E-16,0.));
#236=DIRECTION('ref_axis',(1.81014623580188E-16,-1.,-1.83697019872103E-16));
#237=DIRECTION('center_axis',(1.,0.,0.));
#238=DIRECTION('ref_axis',(0.,-1.,-3.06161699786838E-17));
#239=DIRECTION('center_axis',(1.,1.8240891331026E-16,0.));
#240=DIRECTION('ref_axis',(-1.70803542250024E-16,1.,0.));
#241=DIRECTION('center_axis',(-1.,0.,0.));
#242=DIRECTION('ref_axis',(0.,-1.,-3.06161699786838E-17));
#243=DIRECTION('center_axis',(-1.,-1.8240891331026E-16,0.));
#244=DIRECTION('ref_axis',(-1.70803542250024E-16,1.,0.));
#245=DIRECTION('center_axis',(-1.,-1.8240891331026E-16,0.));
#246=DIRECTION('ref_axis',(0.,0.,1.));
#247=DIRECTION('center_axis',(-1.,-1.8240891331026E-16,0.));
#248=DIRECTION('ref_axis',(0.,0.,1.));
#249=DIRECTION('center_axis',(-1.,-1.8240891331026E-16,0.));
#250=DIRECTION('ref_axis',(1.8240891331026E-16,-1.,-1.83697019872103E-16));
#251=DIRECTION('center_axis',(1.,0.,0.));
#252=DIRECTION('ref_axis',(0.,-1.,-3.06161699786838E-17));
#253=DIRECTION('center_axis',(1.,1.8240891331026E-16,0.));
#254=DIRECTION('ref_axis',(-1.70803542250024E-16,1.,0.));
#255=DIRECTION('center_axis',(-1.,0.,0.));
#256=DIRECTION('ref_axis',(0.,-1.,-3.06161699786838E-17));
#257=DIRECTION('center_axis',(1.,1.8240891331026E-16,0.));
#258=DIRECTION('ref_axis',(0.,0.,-1.));
#259=DIRECTION('center_axis',(-1.,-1.8240891331026E-16,0.));
#260=DIRECTION('ref_axis',(0.,0.,1.));
#261=DIRECTION('center_axis',(-1.,-1.8240891331026E-16,0.));
#262=DIRECTION('ref_axis',(0.,0.,1.));
#263=DIRECTION('center_axis',(-1.,0.,0.));
#264=DIRECTION('ref_axis',(0.,-1.,-3.06161699786838E-17));
#265=DIRECTION('center_axis',(1.,1.8240891331026E-16,0.));
#266=DIRECTION('ref_axis',(1.81478763640651E-16,-1.,-1.83697019872103E-16));
#267=DIRECTION('center_axis',(1.,1.8240891331026E-16,0.));
#268=DIRECTION('ref_axis',(-1.70803542250024E-16,1.,0.));
#269=DIRECTION('center_axis',(1.,0.,0.));
#270=DIRECTION('ref_axis',(0.,-1.,-3.06161699786838E-17));
#271=DIRECTION('center_axis',(-1.,-1.8240891331026E-16,0.));
#272=DIRECTION('ref_axis',(-1.70803542250024E-16,1.,0.));
#273=DIRECTION('center_axis',(-1.,-1.8240891331026E-16,0.));
#274=DIRECTION('ref_axis',(0.,0.,1.));
#275=DIRECTION('center_axis',(-1.,-1.8240891331026E-16,0.));
#276=DIRECTION('ref_axis',(0.,0.,1.));
#277=DIRECTION('center_axis',(-1.,-1.8240891331026E-16,0.));
#278=DIRECTION('ref_axis',(0.,0.,1.));
#279=DIRECTION('center_axis',(-1.,0.,0.));
#280=DIRECTION('ref_axis',(0.,-1.,-3.06161699786838E-17));
#281=DIRECTION('center_axis',(1.,1.8240891331026E-16,0.));
#282=DIRECTION('ref_axis',(1.8240891331026E-16,-1.,-1.83697019872103E-16));
#283=DIRECTION('center_axis',(1.,1.8240891331026E-16,0.));
#284=DIRECTION('ref_axis',(-1.70803542250024E-16,1.,0.));
#285=DIRECTION('center_axis',(1.,0.,0.));
#286=DIRECTION('ref_axis',(0.,-1.,-3.06161699786838E-17));
#287=DIRECTION('center_axis',(-1.,-1.8240891331026E-16,0.));
#288=DIRECTION('ref_axis',(0.,0.,1.));
#289=DIRECTION('center_axis',(-1.,-1.8240891331026E-16,0.));
#290=DIRECTION('ref_axis',(0.,0.,1.));
#291=DIRECTION('center_axis',(-1.,-1.8240891331026E-16,0.));
#292=DIRECTION('ref_axis',(0.,0.,1.));
#293=DIRECTION('center_axis',(1.,1.8240891331026E-16,0.));
#294=DIRECTION('ref_axis',(0.,0.,-1.));
#295=DIRECTION('center_axis',(-1.,-1.8240891331026E-16,0.));
#296=DIRECTION('ref_axis',(-1.70803542250024E-16,1.,0.));
#297=CARTESIAN_POINT('',(0.,0.,0.));
#298=CARTESIAN_POINT('Origin',(-91.5034597787064,-1.66910466623629E-14,
0.));
#299=CARTESIAN_POINT('',(-91.5034597787064,27.6,1.69001258282335E-15));
#300=CARTESIAN_POINT('Origin',(-91.5034597787064,-1.66910466623629E-14,
0.));
#301=CARTESIAN_POINT('',(-92.4882675317186,26.7736481776669,8.19706563556929E-15));
#302=CARTESIAN_POINT('Origin',(-92.4882675317186,-1.77635683940025E-14,
4.09853281778465E-15));
#303=CARTESIAN_POINT('Origin',(-93.1437398078893,-1.69902483600107E-14,
0.));
#304=CARTESIAN_POINT('',(-93.8639504965532,18.9717623896425,1.16168540423299E-15));
#305=CARTESIAN_POINT('Origin',(-93.8639504965532,-1.77635683940025E-14,
2.90421351058248E-15));
#306=CARTESIAN_POINT('Origin',(-46.1712797049418,-8.4220529571225E-15,0.));
#307=CARTESIAN_POINT('',(-3.48105852657927E-15,27.6,0.));
#308=CARTESIAN_POINT('Origin',(0.,0.,0.));
#309=CARTESIAN_POINT('Origin',(-106.22,-1.93754747718158E-14,0.));
#310=CARTESIAN_POINT('',(-107.22,8.42267348105814,5.15740005942058E-16));
#311=CARTESIAN_POINT('Origin',(-107.22,-1.95578836851261E-14,0.));
#312=CARTESIAN_POINT('',(-106.720030852477,9.28868107142397,2.843838385605E-15));
#313=CARTESIAN_POINT('Origin',(-106.720030852477,-1.88737914186277E-14,
1.4219191928025E-15));
#314=CARTESIAN_POINT('Origin',(-99.859389668011,-1.82152427531677E-14,0.));
#315=CARTESIAN_POINT('',(-92.9025865272156,17.2668426278301,1.05728917777766E-15));
#316=CARTESIAN_POINT('Origin',(-92.9025865272156,-1.66533453693773E-14,
2.64322294444415E-15));
#317=CARTESIAN_POINT('Origin',(-107.22,8.99999999999997,0.));
#318=CARTESIAN_POINT('',(-107.22,7.49999999999998,0.));
#319=CARTESIAN_POINT('Origin',(-107.22,-1.95578836851261E-14,0.));
#320=CARTESIAN_POINT('Origin',(-90.1609003688227,-1.64461518593516E-14,
0.));
#321=CARTESIAN_POINT('',(-91.1457081218349,25.1736481776669,1.54144138318207E-15));
#322=CARTESIAN_POINT('Origin',(-91.1457081218349,-1.77635683940025E-14,
3.85360345795518E-15));
#323=CARTESIAN_POINT('',(-90.1609003688227,26.,7.96020419445779E-15));
#324=CARTESIAN_POINT('Origin',(-90.1609003688227,-1.64461518593516E-14,
0.));
#325=CARTESIAN_POINT('Origin',(-91.749389668011,-1.67359064662215E-14,0.));
#326=CARTESIAN_POINT('',(-92.4178096266803,17.959202040529,5.49841982354361E-15));
#327=CARTESIAN_POINT('Origin',(-92.4178096266803,-1.77635683940025E-14,
2.74920991177181E-15));
#328=CARTESIAN_POINT('Origin',(-45.5,-8.29960555561683E-15,0.));
#329=CARTESIAN_POINT('',(0.,26.,0.));
#330=CARTESIAN_POINT('Origin',(4.44089209850063E-15,9.86076131526265E-31,
0.));
#331=CARTESIAN_POINT('Origin',(-93.4026173796925,-1.70374699365637E-14,
0.));
#332=CARTESIAN_POINT('Origin',(-107.82,-1.96673290331122E-14,0.));
#333=CARTESIAN_POINT('',(-108.320030852477,10.2124035017309,6.25329362999799E-16));
#334=CARTESIAN_POINT('Origin',(-108.320030852477,-1.99840144432528E-14,
1.5633234074995E-15));
#335=CARTESIAN_POINT('',(-108.82,9.34639591136506,2.86150845910429E-15));
#336=CARTESIAN_POINT('Origin',(-108.82,-1.98497379464225E-14,0.));
#337=CARTESIAN_POINT('Origin',(-101.382460102947,-1.84930643760994E-14,
0.));
#338=CARTESIAN_POINT('',(-94.3487273970885,18.2794029769436,5.59645308650965E-15));
#339=CARTESIAN_POINT('Origin',(-94.3487273970885,-1.55431223447522E-14,
2.79822654325483E-15));
#340=CARTESIAN_POINT('Origin',(-108.82,7.49999999999998,0.));
#341=CARTESIAN_POINT('',(-108.82,7.49999999999998,0.));
#342=CARTESIAN_POINT('Origin',(-108.82,-1.98497379464225E-14,0.));
#343=CARTESIAN_POINT('Origin',(-94.8487582495654,-1.73012589211308E-14,
0.));
#344=CARTESIAN_POINT('Origin',(-3.48105852657927E-15,27.6,0.));
#345=CARTESIAN_POINT('Origin',(-108.02,-1.97038108157743E-14,0.));
#346=UNCERTAINTY_MEASURE_WITH_UNIT(LENGTH_MEASURE(0.01),#350,
'DISTANCE_ACCURACY_VALUE',
'Maximum model space distance between geometric entities at asserted c
onnectivities');
#347=UNCERTAINTY_MEASURE_WITH_UNIT(LENGTH_MEASURE(1.E-6),#350,
'DISTANCE_ACCURACY_VALUE',
'Maximum model space distance between geometric entities at asserted c
onnectivities');
#348=(
GEOMETRIC_REPRESENTATION_CONTEXT(3)
GLOBAL_UNCERTAINTY_ASSIGNED_CONTEXT((#346))
GLOBAL_UNIT_ASSIGNED_CONTEXT((#350,#353,#351))
REPRESENTATION_CONTEXT('','3D')
);
#349=(
GEOMETRIC_REPRESENTATION_CONTEXT(3)
GLOBAL_UNCERTAINTY_ASSIGNED_CONTEXT((#347))
GLOBAL_UNIT_ASSIGNED_CONTEXT((#350,#353,#351))
REPRESENTATION_CONTEXT('','3D')
);
#350=(
LENGTH_UNIT()
NAMED_UNIT(*)
SI_UNIT(.MILLI.,.METRE.)
);
#351=(
NAMED_UNIT(*)
SI_UNIT($,.STERADIAN.)
SOLID_ANGLE_UNIT()
);
#352=DIMENSIONAL_EXPONENTS(0.,0.,0.,0.,0.,0.,0.);
#353=(
CONVERSION_BASED_UNIT('degree',#355)
NAMED_UNIT(#352)
PLANE_ANGLE_UNIT()
);
#354=(
NAMED_UNIT(*)
PLANE_ANGLE_UNIT()
SI_UNIT($,.RADIAN.)
);
#355=PLANE_ANGLE_MEASURE_WITH_UNIT(PLANE_ANGLE_MEASURE(0.01745329252),#354);
#356=SHAPE_DEFINITION_REPRESENTATION(#357,#358);
#357=PRODUCT_DEFINITION_SHAPE('',$,#360);
#358=SHAPE_REPRESENTATION('',(#198),#348);
#359=PRODUCT_DEFINITION_CONTEXT('part definition',#364,'design');
#360=PRODUCT_DEFINITION('00506090','Schutzkappe-01-BT-0001-00506090',#361,
#359);
#361=PRODUCT_DEFINITION_FORMATION('',$,#366);
#362=PRODUCT_RELATED_PRODUCT_CATEGORY('Schutzkappe-01-BT-0001-00506090',
'Schutzkappe-01-BT-0001-00506090',(#366));
#363=APPLICATION_PROTOCOL_DEFINITION('international standard',
'automotive_design',2009,#364);
#364=APPLICATION_CONTEXT(
'Core Data for Automotive Mechanical Design Process');
#365=PRODUCT_CONTEXT('part definition',#364,'mechanical');
#366=PRODUCT('00506090','Schutzkappe-01-BT-0001-00506090',
'Schutzkappe f\X\FCr ADE N\X\B09',(#365));
#367=PRESENTATION_STYLE_ASSIGNMENT((#368));
#368=SURFACE_STYLE_USAGE(.BOTH.,#369);
#369=SURFACE_SIDE_STYLE('',(#370));
#370=SURFACE_STYLE_FILL_AREA(#371);
#371=FILL_AREA_STYLE('',(#372));
#372=FILL_AREA_STYLE_COLOUR('',#373);
#373=COLOUR_RGB('',0.250980392156863,0.250980392156863,0.250980392156863);
ENDSEC;
END-ISO-10303-21;
