ISO-10303-21;
HEADER;
/* Generated by software containing ST-Developer
 * from STEP Tools, Inc. (www.steptools.com) 
 */

FILE_DESCRIPTION(
/* description */ ('Schutzkappe f\X\FCr ADE N\X\B014'),
/* implementation_level */ '2;1');

FILE_NAME(
/* name */ 
'Y:\\Produkte\\Produktdaten_Produktdarstellungen\\Produktdarstellungen
_Bilder-3DModelle-etc\\3D-Modelle\\Kundenversionen\\Eaton\\Capri_SL\\R
ST-SL\\Shrouds\\00506140-RST.stp',
/* time_stamp */ '2020-10-28T13:31:01+01:00',
/* author */ ('sl'),
/* organization */ (''),
/* preprocessor_version */ 'ST-DEVELOPER v16.5',
/* originating_system */ 'Autodesk Inventor 2017',
/* authorisation */ '');

FILE_SCHEMA (('AUTOMOTIVE_DESIGN { 1 0 10303 214 3 1 1 }'));
ENDSEC;

DATA;
#10=MECHANICAL_DESIGN_GEOMETRIC_PRESENTATION_REPRESENTATION('',(#13),#349);
#11=SHAPE_REPRESENTATION_RELATIONSHIP('SRR','None',#358,#12);
#12=ADVANCED_BREP_SHAPE_REPRESENTATION('',(#14),#348);
#13=STYLED_ITEM('',(#367),#14);
#14=MANIFOLD_SOLID_BREP('Volumenk\X\F6rper2',#191);
#15=PLANE('',#211);
#16=PLANE('',#226);
#17=PLANE('',#229);
#18=CYLINDRICAL_SURFACE('',#204,51.8);
#19=CYLINDRICAL_SURFACE('',#218,50.);
#20=CYLINDRICAL_SURFACE('',#230,24.);
#21=CONICAL_SURFACE('',#202,45.4695784209844,80.0000000000001);
#22=CONICAL_SURFACE('',#209,32.,30.0006367824253);
#23=CONICAL_SURFACE('',#216,44.,80.);
#24=CONICAL_SURFACE('',#224,33.0891869949065,30.0006367824253);
#25=FACE_BOUND('',#58,.T.);
#26=FACE_BOUND('',#60,.T.);
#27=FACE_BOUND('',#62,.T.);
#28=FACE_BOUND('',#64,.T.);
#29=FACE_BOUND('',#66,.T.);
#30=FACE_BOUND('',#68,.T.);
#31=FACE_BOUND('',#70,.T.);
#32=FACE_BOUND('',#72,.T.);
#33=FACE_BOUND('',#74,.T.);
#34=FACE_BOUND('',#76,.T.);
#35=FACE_BOUND('',#78,.T.);
#36=FACE_BOUND('',#80,.T.);
#37=FACE_BOUND('',#82,.T.);
#38=FACE_BOUND('',#84,.T.);
#39=FACE_BOUND('',#86,.T.);
#40=FACE_BOUND('',#88,.T.);
#41=FACE_OUTER_BOUND('',#57,.T.);
#42=FACE_OUTER_BOUND('',#59,.T.);
#43=FACE_OUTER_BOUND('',#61,.T.);
#44=FACE_OUTER_BOUND('',#63,.T.);
#45=FACE_OUTER_BOUND('',#65,.T.);
#46=FACE_OUTER_BOUND('',#67,.T.);
#47=FACE_OUTER_BOUND('',#69,.T.);
#48=FACE_OUTER_BOUND('',#71,.T.);
#49=FACE_OUTER_BOUND('',#73,.T.);
#50=FACE_OUTER_BOUND('',#75,.T.);
#51=FACE_OUTER_BOUND('',#77,.T.);
#52=FACE_OUTER_BOUND('',#79,.T.);
#53=FACE_OUTER_BOUND('',#81,.T.);
#54=FACE_OUTER_BOUND('',#83,.T.);
#55=FACE_OUTER_BOUND('',#85,.T.);
#56=FACE_OUTER_BOUND('',#87,.T.);
#57=EDGE_LOOP('',(#137));
#58=EDGE_LOOP('',(#138));
#59=EDGE_LOOP('',(#139));
#60=EDGE_LOOP('',(#140));
#61=EDGE_LOOP('',(#141));
#62=EDGE_LOOP('',(#142));
#63=EDGE_LOOP('',(#143));
#64=EDGE_LOOP('',(#144));
#65=EDGE_LOOP('',(#145));
#66=EDGE_LOOP('',(#146));
#67=EDGE_LOOP('',(#147));
#68=EDGE_LOOP('',(#148));
#69=EDGE_LOOP('',(#149));
#70=EDGE_LOOP('',(#150));
#71=EDGE_LOOP('',(#151));
#72=EDGE_LOOP('',(#152));
#73=EDGE_LOOP('',(#153));
#74=EDGE_LOOP('',(#154));
#75=EDGE_LOOP('',(#155));
#76=EDGE_LOOP('',(#156));
#77=EDGE_LOOP('',(#157));
#78=EDGE_LOOP('',(#158));
#79=EDGE_LOOP('',(#159));
#80=EDGE_LOOP('',(#160));
#81=EDGE_LOOP('',(#161));
#82=EDGE_LOOP('',(#162));
#83=EDGE_LOOP('',(#163));
#84=EDGE_LOOP('',(#164));
#85=EDGE_LOOP('',(#165));
#86=EDGE_LOOP('',(#166));
#87=EDGE_LOOP('',(#167));
#88=EDGE_LOOP('',(#168));
#89=CIRCLE('',#200,51.8);
#90=CIRCLE('',#201,50.1472963553339);
#91=CIRCLE('',#203,40.0575903110449);
#92=CIRCLE('',#205,51.8);
#93=CIRCLE('',#207,24.8453142801731);
#94=CIRCLE('',#208,26.5773539736851);
#95=CIRCLE('',#210,37.5336901308979);
#96=CIRCLE('',#212,24.);
#97=CIRCLE('',#214,48.3472963553339);
#98=CIRCLE('',#215,50.);
#99=CIRCLE('',#217,38.918433469076);
#100=CIRCLE('',#219,50.);
#101=CIRCLE('',#222,27.6165711215293);
#102=CIRCLE('',#223,25.8845314280173);
#103=CIRCLE('',#225,38.6728469728668);
#104=CIRCLE('',#227,24.);
#105=VERTEX_POINT('',#299);
#106=VERTEX_POINT('',#301);
#107=VERTEX_POINT('',#304);
#108=VERTEX_POINT('',#307);
#109=VERTEX_POINT('',#310);
#110=VERTEX_POINT('',#312);
#111=VERTEX_POINT('',#315);
#112=VERTEX_POINT('',#318);
#113=VERTEX_POINT('',#321);
#114=VERTEX_POINT('',#323);
#115=VERTEX_POINT('',#326);
#116=VERTEX_POINT('',#329);
#117=VERTEX_POINT('',#333);
#118=VERTEX_POINT('',#335);
#119=VERTEX_POINT('',#338);
#120=VERTEX_POINT('',#341);
#121=EDGE_CURVE('',#105,#105,#89,.T.);
#122=EDGE_CURVE('',#106,#106,#90,.T.);
#123=EDGE_CURVE('',#107,#107,#91,.T.);
#124=EDGE_CURVE('',#108,#108,#92,.T.);
#125=EDGE_CURVE('',#109,#109,#93,.T.);
#126=EDGE_CURVE('',#110,#110,#94,.T.);
#127=EDGE_CURVE('',#111,#111,#95,.T.);
#128=EDGE_CURVE('',#112,#112,#96,.T.);
#129=EDGE_CURVE('',#113,#113,#97,.T.);
#130=EDGE_CURVE('',#114,#114,#98,.T.);
#131=EDGE_CURVE('',#115,#115,#99,.T.);
#132=EDGE_CURVE('',#116,#116,#100,.T.);
#133=EDGE_CURVE('',#117,#117,#101,.T.);
#134=EDGE_CURVE('',#118,#118,#102,.T.);
#135=EDGE_CURVE('',#119,#119,#103,.T.);
#136=EDGE_CURVE('',#120,#120,#104,.T.);
#137=ORIENTED_EDGE('',*,*,#121,.T.);
#138=ORIENTED_EDGE('',*,*,#122,.T.);
#139=ORIENTED_EDGE('',*,*,#123,.F.);
#140=ORIENTED_EDGE('',*,*,#122,.F.);
#141=ORIENTED_EDGE('',*,*,#124,.T.);
#142=ORIENTED_EDGE('',*,*,#121,.F.);
#143=ORIENTED_EDGE('',*,*,#125,.T.);
#144=ORIENTED_EDGE('',*,*,#126,.T.);
#145=ORIENTED_EDGE('',*,*,#127,.F.);
#146=ORIENTED_EDGE('',*,*,#126,.F.);
#147=ORIENTED_EDGE('',*,*,#125,.F.);
#148=ORIENTED_EDGE('',*,*,#128,.T.);
#149=ORIENTED_EDGE('',*,*,#129,.T.);
#150=ORIENTED_EDGE('',*,*,#130,.T.);
#151=ORIENTED_EDGE('',*,*,#131,.F.);
#152=ORIENTED_EDGE('',*,*,#129,.F.);
#153=ORIENTED_EDGE('',*,*,#132,.F.);
#154=ORIENTED_EDGE('',*,*,#130,.F.);
#155=ORIENTED_EDGE('',*,*,#127,.T.);
#156=ORIENTED_EDGE('',*,*,#131,.T.);
#157=ORIENTED_EDGE('',*,*,#133,.T.);
#158=ORIENTED_EDGE('',*,*,#134,.T.);
#159=ORIENTED_EDGE('',*,*,#135,.F.);
#160=ORIENTED_EDGE('',*,*,#133,.F.);
#161=ORIENTED_EDGE('',*,*,#134,.F.);
#162=ORIENTED_EDGE('',*,*,#136,.F.);
#163=ORIENTED_EDGE('',*,*,#123,.T.);
#164=ORIENTED_EDGE('',*,*,#135,.T.);
#165=ORIENTED_EDGE('',*,*,#124,.F.);
#166=ORIENTED_EDGE('',*,*,#132,.T.);
#167=ORIENTED_EDGE('',*,*,#136,.T.);
#168=ORIENTED_EDGE('',*,*,#128,.F.);
#169=TOROIDAL_SURFACE('',#199,49.8,2.);
#170=TOROIDAL_SURFACE('',#206,24.8453142801731,2.);
#171=TOROIDAL_SURFACE('',#213,48.,2.);
#172=TOROIDAL_SURFACE('',#220,39.2657298244099,2.);
#173=TOROIDAL_SURFACE('',#221,25.8845314280173,2.);
#174=TOROIDAL_SURFACE('',#228,40.4048866663788,2.);
#175=ADVANCED_FACE('',(#41,#25),#169,.T.);
#176=ADVANCED_FACE('',(#42,#26),#21,.T.);
#177=ADVANCED_FACE('',(#43,#27),#18,.T.);
#178=ADVANCED_FACE('',(#44,#28),#170,.F.);
#179=ADVANCED_FACE('',(#45,#29),#22,.F.);
#180=ADVANCED_FACE('',(#46,#30),#15,.T.);
#181=ADVANCED_FACE('',(#47,#31),#171,.F.);
#182=ADVANCED_FACE('',(#48,#32),#23,.F.);
#183=ADVANCED_FACE('',(#49,#33),#19,.F.);
#184=ADVANCED_FACE('',(#50,#34),#172,.T.);
#185=ADVANCED_FACE('',(#51,#35),#173,.T.);
#186=ADVANCED_FACE('',(#52,#36),#24,.T.);
#187=ADVANCED_FACE('',(#53,#37),#16,.T.);
#188=ADVANCED_FACE('',(#54,#38),#174,.F.);
#189=ADVANCED_FACE('',(#55,#39),#17,.T.);
#190=ADVANCED_FACE('',(#56,#40),#20,.F.);
#191=CLOSED_SHELL('',(#175,#176,#177,#178,#179,#180,#181,#182,#183,#184,
#185,#186,#187,#188,#189,#190));
#192=DATE_TIME_ROLE('creation_date');
#193=APPLIED_DATE_AND_TIME_ASSIGNMENT(#194,#192,(#360));
#194=DATE_AND_TIME(#195,#196);
#195=CALENDAR_DATE(2020,27,10);
#196=LOCAL_TIME(23,0,0.,#197);
#197=COORDINATED_UNIVERSAL_TIME_OFFSET(0,0,.BEHIND.);
#198=AXIS2_PLACEMENT_3D('placement',#297,#231,#232);
#199=AXIS2_PLACEMENT_3D('',#298,#233,#234);
#200=AXIS2_PLACEMENT_3D('',#300,#235,#236);
#201=AXIS2_PLACEMENT_3D('',#302,#237,#238);
#202=AXIS2_PLACEMENT_3D('',#303,#239,#240);
#203=AXIS2_PLACEMENT_3D('',#305,#241,#242);
#204=AXIS2_PLACEMENT_3D('',#306,#243,#244);
#205=AXIS2_PLACEMENT_3D('',#308,#245,#246);
#206=AXIS2_PLACEMENT_3D('',#309,#247,#248);
#207=AXIS2_PLACEMENT_3D('',#311,#249,#250);
#208=AXIS2_PLACEMENT_3D('',#313,#251,#252);
#209=AXIS2_PLACEMENT_3D('',#314,#253,#254);
#210=AXIS2_PLACEMENT_3D('',#316,#255,#256);
#211=AXIS2_PLACEMENT_3D('',#317,#257,#258);
#212=AXIS2_PLACEMENT_3D('',#319,#259,#260);
#213=AXIS2_PLACEMENT_3D('',#320,#261,#262);
#214=AXIS2_PLACEMENT_3D('',#322,#263,#264);
#215=AXIS2_PLACEMENT_3D('',#324,#265,#266);
#216=AXIS2_PLACEMENT_3D('',#325,#267,#268);
#217=AXIS2_PLACEMENT_3D('',#327,#269,#270);
#218=AXIS2_PLACEMENT_3D('',#328,#271,#272);
#219=AXIS2_PLACEMENT_3D('',#330,#273,#274);
#220=AXIS2_PLACEMENT_3D('',#331,#275,#276);
#221=AXIS2_PLACEMENT_3D('',#332,#277,#278);
#222=AXIS2_PLACEMENT_3D('',#334,#279,#280);
#223=AXIS2_PLACEMENT_3D('',#336,#281,#282);
#224=AXIS2_PLACEMENT_3D('',#337,#283,#284);
#225=AXIS2_PLACEMENT_3D('',#339,#285,#286);
#226=AXIS2_PLACEMENT_3D('',#340,#287,#288);
#227=AXIS2_PLACEMENT_3D('',#342,#289,#290);
#228=AXIS2_PLACEMENT_3D('',#343,#291,#292);
#229=AXIS2_PLACEMENT_3D('',#344,#293,#294);
#230=AXIS2_PLACEMENT_3D('',#345,#295,#296);
#231=DIRECTION('axis',(0.,0.,1.));
#232=DIRECTION('refdir',(1.,0.,0.));
#233=DIRECTION('center_axis',(-1.,-1.8240891331026E-16,0.));
#234=DIRECTION('ref_axis',(0.,0.,1.));
#235=DIRECTION('center_axis',(-1.,-1.8240891331026E-16,0.));
#236=DIRECTION('ref_axis',(1.82179453847757E-16,-1.,-1.83697019872103E-16));
#237=DIRECTION('center_axis',(1.,0.,0.));
#238=DIRECTION('ref_axis',(0.,-1.,-3.06161699786838E-17));
#239=DIRECTION('center_axis',(1.,1.8240891331026E-16,0.));
#240=DIRECTION('ref_axis',(-1.77635683940025E-16,1.,0.));
#241=DIRECTION('center_axis',(-1.,0.,0.));
#242=DIRECTION('ref_axis',(0.,-1.,-3.06161699786838E-17));
#243=DIRECTION('center_axis',(-1.,-1.8240891331026E-16,0.));
#244=DIRECTION('ref_axis',(-1.77635683940025E-16,1.,0.));
#245=DIRECTION('center_axis',(-1.,-1.8240891331026E-16,0.));
#246=DIRECTION('ref_axis',(0.,0.,1.));
#247=DIRECTION('center_axis',(-1.,-1.8240891331026E-16,0.));
#248=DIRECTION('ref_axis',(0.,0.,1.));
#249=DIRECTION('center_axis',(-1.,-1.8240891331026E-16,0.));
#250=DIRECTION('ref_axis',(1.8240891331026E-16,-1.,-1.83697019872103E-16));
#251=DIRECTION('center_axis',(1.,0.,0.));
#252=DIRECTION('ref_axis',(0.,-1.,-3.06161699786838E-17));
#253=DIRECTION('center_axis',(1.,1.8240891331026E-16,0.));
#254=DIRECTION('ref_axis',(-1.77635683940025E-16,1.,0.));
#255=DIRECTION('center_axis',(-1.,0.,0.));
#256=DIRECTION('ref_axis',(0.,-1.,-3.06161699786838E-17));
#257=DIRECTION('center_axis',(1.,1.8240891331026E-16,0.));
#258=DIRECTION('ref_axis',(0.,0.,-1.));
#259=DIRECTION('center_axis',(-1.,-1.8240891331026E-16,0.));
#260=DIRECTION('ref_axis',(0.,0.,1.));
#261=DIRECTION('center_axis',(-1.,-1.8240891331026E-16,0.));
#262=DIRECTION('ref_axis',(0.,0.,1.));
#263=DIRECTION('center_axis',(-1.,0.,0.));
#264=DIRECTION('ref_axis',(0.,-1.,-3.06161699786838E-17));
#265=DIRECTION('center_axis',(1.,1.8240891331026E-16,0.));
#266=DIRECTION('ref_axis',(1.83186799063151E-16,-1.,-1.83697019872103E-16));
#267=DIRECTION('center_axis',(1.,1.8240891331026E-16,0.));
#268=DIRECTION('ref_axis',(-1.77635683940025E-16,1.,0.));
#269=DIRECTION('center_axis',(1.,0.,0.));
#270=DIRECTION('ref_axis',(0.,-1.,-3.06161699786838E-17));
#271=DIRECTION('center_axis',(-1.,-1.8240891331026E-16,0.));
#272=DIRECTION('ref_axis',(-1.77635683940025E-16,1.,0.));
#273=DIRECTION('center_axis',(-1.,-1.8240891331026E-16,0.));
#274=DIRECTION('ref_axis',(0.,0.,1.));
#275=DIRECTION('center_axis',(-1.,-1.8240891331026E-16,0.));
#276=DIRECTION('ref_axis',(0.,0.,1.));
#277=DIRECTION('center_axis',(-1.,-1.8240891331026E-16,0.));
#278=DIRECTION('ref_axis',(0.,0.,1.));
#279=DIRECTION('center_axis',(-1.,0.,0.));
#280=DIRECTION('ref_axis',(0.,-1.,-3.06161699786838E-17));
#281=DIRECTION('center_axis',(1.,1.8240891331026E-16,0.));
#282=DIRECTION('ref_axis',(1.8240891331026E-16,-1.,-1.83697019872103E-16));
#283=DIRECTION('center_axis',(1.,1.8240891331026E-16,0.));
#284=DIRECTION('ref_axis',(-1.77635683940025E-16,1.,0.));
#285=DIRECTION('center_axis',(1.,0.,0.));
#286=DIRECTION('ref_axis',(0.,-1.,-3.06161699786838E-17));
#287=DIRECTION('center_axis',(-1.,-1.8240891331026E-16,0.));
#288=DIRECTION('ref_axis',(0.,0.,1.));
#289=DIRECTION('center_axis',(-1.,-1.8240891331026E-16,0.));
#290=DIRECTION('ref_axis',(0.,0.,1.));
#291=DIRECTION('center_axis',(-1.,-1.8240891331026E-16,0.));
#292=DIRECTION('ref_axis',(0.,0.,1.));
#293=DIRECTION('center_axis',(1.,1.8240891331026E-16,0.));
#294=DIRECTION('ref_axis',(0.,0.,-1.));
#295=DIRECTION('center_axis',(-1.,-1.8240891331026E-16,0.));
#296=DIRECTION('ref_axis',(-1.77635683940025E-16,1.,0.));
#297=CARTESIAN_POINT('',(0.,0.,0.));
#298=CARTESIAN_POINT('Origin',(-117.832180073765,-2.14936399202343E-14,
0.));
#299=CARTESIAN_POINT('',(-117.832180073765,51.8,3.17183520979165E-15));
#300=CARTESIAN_POINT('Origin',(-117.832180073765,-2.14936399202343E-14,
0.));
#301=CARTESIAN_POINT('',(-119.801795579789,50.1472963553339,1.53531814918633E-14));
#302=CARTESIAN_POINT('Origin',(-119.801795579789,-2.22044604925031E-14,
7.67659074593167E-15));
#303=CARTESIAN_POINT('Origin',(-120.626603459759,-2.20033676534022E-14,
0.));
#304=CARTESIAN_POINT('',(-121.580882982814,40.0575903110449,2.45281998779886E-15));
#305=CARTESIAN_POINT('Origin',(-121.580882982814,-2.66453525910038E-14,
6.13204996949715E-15));
#306=CARTESIAN_POINT('Origin',(-59.7551896680596,-1.08998792119992E-14,
0.));
#307=CARTESIAN_POINT('',(-7.92652640748417E-15,51.8,0.));
#308=CARTESIAN_POINT('Origin',(0.,0.,0.));
#309=CARTESIAN_POINT('Origin',(-138.9,-2.53365980587951E-14,0.));
#310=CARTESIAN_POINT('',(-140.9,24.8453142801731,1.5213367303512E-15));
#311=CARTESIAN_POINT('Origin',(-140.9,-2.57014158854156E-14,0.));
#312=CARTESIAN_POINT('',(-139.900019249864,26.577353973685,8.1369678684199E-15));
#313=CARTESIAN_POINT('Origin',(-139.900019249864,-2.44249065417534E-14,
4.06848393420995E-15));
#314=CARTESIAN_POINT('Origin',(-130.507961884251,-2.3805815505643E-14,0.));
#315=CARTESIAN_POINT('',(-120.923575424078,37.5336901308979,2.29827567394964E-15));
#316=CARTESIAN_POINT('Origin',(-120.923575424078,-2.22044604925031E-14,
5.74568918487409E-15));
#317=CARTESIAN_POINT('Origin',(-140.9,26.,0.));
#318=CARTESIAN_POINT('',(-140.9,24.,0.));
#319=CARTESIAN_POINT('Origin',(-140.9,-2.57014158854156E-14,0.));
#320=CARTESIAN_POINT('Origin',(-116.321800737645,-2.12181332668465E-14,
0.));
#321=CARTESIAN_POINT('',(-118.29141624367,48.3472963553338,2.96041808644941E-15));
#322=CARTESIAN_POINT('Origin',(-118.29141624367,-1.77635683940025E-14,7.40104521612351E-15));
#323=CARTESIAN_POINT('',(-116.321800737645,50.,1.53080849893419E-14));
#324=CARTESIAN_POINT('Origin',(-116.321800737645,-2.12181332668465E-14,
0.));
#325=CARTESIAN_POINT('Origin',(-119.057961884251,-2.17172334482405E-14,
0.));
#326=CARTESIAN_POINT('',(-119.953979167918,38.918433469076,1.19153337439333E-14));
#327=CARTESIAN_POINT('Origin',(-119.953979167918,-2.22044604925031E-14,
5.95766687196665E-15));
#328=CARTESIAN_POINT('Origin',(-59.,-1.07621258853053E-14,0.));
#329=CARTESIAN_POINT('',(0.,50.,0.));
#330=CARTESIAN_POINT('Origin',(8.88178419700125E-15,1.97215226305253E-30,
0.));
#331=CARTESIAN_POINT('Origin',(-121.923594673942,-2.22399504113544E-14,
0.));
#332=CARTESIAN_POINT('Origin',(-140.7,-2.56649341027536E-14,0.));
#333=CARTESIAN_POINT('',(-141.700019249864,27.6165711215292,1.6910272713703E-15));
#334=CARTESIAN_POINT('Origin',(-141.700019249864,-2.44249065417534E-14,
4.22756817842575E-15));
#335=CARTESIAN_POINT('',(-142.7,25.8845314280173,7.92485214018761E-15));
#336=CARTESIAN_POINT('Origin',(-142.7,-2.60297519293741E-14,0.));
#337=CARTESIAN_POINT('Origin',(-132.221413791699,-2.41183644060901E-14,
0.));
#338=CARTESIAN_POINT('',(-122.550479238975,38.6728469728668,1.18401445648092E-14));
#339=CARTESIAN_POINT('Origin',(-122.550479238975,-2.22044604925031E-14,
5.9200722824046E-15));
#340=CARTESIAN_POINT('Origin',(-142.7,24.,0.));
#341=CARTESIAN_POINT('',(-142.7,24.,0.));
#342=CARTESIAN_POINT('Origin',(-142.7,-2.60297519293741E-14,0.));
#343=CARTESIAN_POINT('Origin',(-123.550498488839,-2.253671216829E-14,0.));
#344=CARTESIAN_POINT('Origin',(-7.92652640748417E-15,51.8,0.));
#345=CARTESIAN_POINT('Origin',(-141.8,-2.58655839073949E-14,0.));
#346=UNCERTAINTY_MEASURE_WITH_UNIT(LENGTH_MEASURE(0.01),#350,
'DISTANCE_ACCURACY_VALUE',
'Maximum model space distance between geometric entities at asserted c
onnectivities');
#347=UNCERTAINTY_MEASURE_WITH_UNIT(LENGTH_MEASURE(1.E-6),#350,
'DISTANCE_ACCURACY_VALUE',
'Maximum model space distance between geometric entities at asserted c
onnectivities');
#348=(
GEOMETRIC_REPRESENTATION_CONTEXT(3)
GLOBAL_UNCERTAINTY_ASSIGNED_CONTEXT((#346))
GLOBAL_UNIT_ASSIGNED_CONTEXT((#350,#353,#351))
REPRESENTATION_CONTEXT('','3D')
);
#349=(
GEOMETRIC_REPRESENTATION_CONTEXT(3)
GLOBAL_UNCERTAINTY_ASSIGNED_CONTEXT((#347))
GLOBAL_UNIT_ASSIGNED_CONTEXT((#350,#353,#351))
REPRESENTATION_CONTEXT('','3D')
);
#350=(
LENGTH_UNIT()
NAMED_UNIT(*)
SI_UNIT(.MILLI.,.METRE.)
);
#351=(
NAMED_UNIT(*)
SI_UNIT($,.STERADIAN.)
SOLID_ANGLE_UNIT()
);
#352=DIMENSIONAL_EXPONENTS(0.,0.,0.,0.,0.,0.,0.);
#353=(
CONVERSION_BASED_UNIT('degree',#355)
NAMED_UNIT(#352)
PLANE_ANGLE_UNIT()
);
#354=(
NAMED_UNIT(*)
PLANE_ANGLE_UNIT()
SI_UNIT($,.RADIAN.)
);
#355=PLANE_ANGLE_MEASURE_WITH_UNIT(PLANE_ANGLE_MEASURE(0.01745329252),#354);
#356=SHAPE_DEFINITION_REPRESENTATION(#357,#358);
#357=PRODUCT_DEFINITION_SHAPE('',$,#360);
#358=SHAPE_REPRESENTATION('',(#198),#348);
#359=PRODUCT_DEFINITION_CONTEXT('part definition',#364,'design');
#360=PRODUCT_DEFINITION('00506140','Schutzkappe-01-BT-0001-00506140',#361,
#359);
#361=PRODUCT_DEFINITION_FORMATION('',$,#366);
#362=PRODUCT_RELATED_PRODUCT_CATEGORY('Schutzkappe-01-BT-0001-00506140',
'Schutzkappe-01-BT-0001-00506140',(#366));
#363=APPLICATION_PROTOCOL_DEFINITION('international standard',
'automotive_design',2009,#364);
#364=APPLICATION_CONTEXT(
'Core Data for Automotive Mechanical Design Process');
#365=PRODUCT_CONTEXT('part definition',#364,'mechanical');
#366=PRODUCT('00506140','Schutzkappe-01-BT-0001-00506140',
'Schutzkappe f\X\FCr ADE N\X\B014',(#365));
#367=PRESENTATION_STYLE_ASSIGNMENT((#368));
#368=SURFACE_STYLE_USAGE(.BOTH.,#369);
#369=SURFACE_SIDE_STYLE('',(#370));
#370=SURFACE_STYLE_FILL_AREA(#371);
#371=FILL_AREA_STYLE('',(#372));
#372=FILL_AREA_STYLE_COLOUR('',#373);
#373=COLOUR_RGB('',0.250980392156863,0.250980392156863,0.250980392156863);
ENDSEC;
END-ISO-10303-21;
