ISO-10303-21;
HEADER;
/* Generated by software containing ST-Developer
 * from STEP Tools, Inc. (www.steptools.com) 
 */

FILE_DESCRIPTION(
/* description */ (
'Mehrfachdichteinsatz f\X\FCr Euro-Top D= 15,3mm; 2x6,0'),
/* implementation_level */ '2;1');

FILE_NAME(
/* name */ 
'Y:\\Produkte\\Produktdaten_Produktdarstellungen\\Produktdarstellungen
_Bilder-3DModelle-etc\\3D-Modelle\\Kundenversionen\\Jacob\\RST-SL\\Meh
rfachdichteinsatz\\05613260-RST.stp',
/* time_stamp */ '2020-10-06T14:36:54+02:00',
/* author */ ('sl'),
/* organization */ (''),
/* preprocessor_version */ 'ST-DEVELOPER v16.5',
/* originating_system */ 'Autodesk Inventor 2017',
/* authorisation */ '');

FILE_SCHEMA (('AUTOMOTIVE_DESIGN { 1 0 10303 214 3 1 1 }'));
ENDSEC;

DATA;
#10=MECHANICAL_DESIGN_GEOMETRIC_PRESENTATION_REPRESENTATION('',(#13),#163);
#11=SHAPE_REPRESENTATION_RELATIONSHIP('SRR','None',#172,#12);
#12=ADVANCED_BREP_SHAPE_REPRESENTATION('',(#14),#162);
#13=STYLED_ITEM('',(#181),#14);
#14=MANIFOLD_SOLID_BREP('Volumenk\X\F6rper1',#90);
#15=PLANE('',#109);
#16=PLANE('',#110);
#17=CYLINDRICAL_SURFACE('',#101,3.);
#18=CYLINDRICAL_SURFACE('',#104,3.);
#19=CYLINDRICAL_SURFACE('',#107,7.65);
#20=FACE_BOUND('',#35,.T.);
#21=FACE_BOUND('',#37,.T.);
#22=FACE_BOUND('',#39,.T.);
#23=FACE_BOUND('',#41,.T.);
#24=FACE_BOUND('',#43,.T.);
#25=FACE_BOUND('',#44,.T.);
#26=FACE_BOUND('',#46,.T.);
#27=FACE_BOUND('',#47,.T.);
#28=FACE_OUTER_BOUND('',#34,.T.);
#29=FACE_OUTER_BOUND('',#36,.T.);
#30=FACE_OUTER_BOUND('',#38,.T.);
#31=FACE_OUTER_BOUND('',#40,.T.);
#32=FACE_OUTER_BOUND('',#42,.T.);
#33=FACE_OUTER_BOUND('',#45,.T.);
#34=EDGE_LOOP('',(#69));
#35=EDGE_LOOP('',(#70));
#36=EDGE_LOOP('',(#71));
#37=EDGE_LOOP('',(#72));
#38=EDGE_LOOP('',(#73));
#39=EDGE_LOOP('',(#74));
#40=EDGE_LOOP('',(#75));
#41=EDGE_LOOP('',(#76));
#42=EDGE_LOOP('',(#77));
#43=EDGE_LOOP('',(#78));
#44=EDGE_LOOP('',(#79));
#45=EDGE_LOOP('',(#80));
#46=EDGE_LOOP('',(#81));
#47=EDGE_LOOP('',(#82));
#48=CIRCLE('',#99,7.15);
#49=CIRCLE('',#100,7.65);
#50=CIRCLE('',#102,3.);
#51=CIRCLE('',#103,3.);
#52=CIRCLE('',#105,3.);
#53=CIRCLE('',#106,3.);
#54=CIRCLE('',#108,7.65);
#55=VERTEX_POINT('',#141);
#56=VERTEX_POINT('',#143);
#57=VERTEX_POINT('',#146);
#58=VERTEX_POINT('',#148);
#59=VERTEX_POINT('',#151);
#60=VERTEX_POINT('',#153);
#61=VERTEX_POINT('',#156);
#62=EDGE_CURVE('',#55,#55,#48,.T.);
#63=EDGE_CURVE('',#56,#56,#49,.T.);
#64=EDGE_CURVE('',#57,#57,#50,.T.);
#65=EDGE_CURVE('',#58,#58,#51,.T.);
#66=EDGE_CURVE('',#59,#59,#52,.T.);
#67=EDGE_CURVE('',#60,#60,#53,.T.);
#68=EDGE_CURVE('',#61,#61,#54,.T.);
#69=ORIENTED_EDGE('',*,*,#62,.F.);
#70=ORIENTED_EDGE('',*,*,#63,.T.);
#71=ORIENTED_EDGE('',*,*,#64,.F.);
#72=ORIENTED_EDGE('',*,*,#65,.F.);
#73=ORIENTED_EDGE('',*,*,#66,.F.);
#74=ORIENTED_EDGE('',*,*,#67,.F.);
#75=ORIENTED_EDGE('',*,*,#63,.F.);
#76=ORIENTED_EDGE('',*,*,#68,.F.);
#77=ORIENTED_EDGE('',*,*,#68,.T.);
#78=ORIENTED_EDGE('',*,*,#65,.T.);
#79=ORIENTED_EDGE('',*,*,#67,.T.);
#80=ORIENTED_EDGE('',*,*,#62,.T.);
#81=ORIENTED_EDGE('',*,*,#64,.T.);
#82=ORIENTED_EDGE('',*,*,#66,.T.);
#83=CONICAL_SURFACE('',#98,7.4,45.);
#84=ADVANCED_FACE('',(#28,#20),#83,.F.);
#85=ADVANCED_FACE('',(#29,#21),#17,.F.);
#86=ADVANCED_FACE('',(#30,#22),#18,.F.);
#87=ADVANCED_FACE('',(#31,#23),#19,.T.);
#88=ADVANCED_FACE('',(#32,#24,#25),#15,.F.);
#89=ADVANCED_FACE('',(#33,#26,#27),#16,.T.);
#90=CLOSED_SHELL('',(#84,#85,#86,#87,#88,#89));
#91=DATE_TIME_ROLE('creation_date');
#92=APPLIED_DATE_AND_TIME_ASSIGNMENT(#93,#91,(#174));
#93=DATE_AND_TIME(#94,#95);
#94=CALENDAR_DATE(2020,5,10);
#95=LOCAL_TIME(22,0,0.,#96);
#96=COORDINATED_UNIVERSAL_TIME_OFFSET(0,0,.BEHIND.);
#97=AXIS2_PLACEMENT_3D('placement',#139,#111,#112);
#98=AXIS2_PLACEMENT_3D('',#140,#113,#114);
#99=AXIS2_PLACEMENT_3D('',#142,#115,#116);
#100=AXIS2_PLACEMENT_3D('',#144,#117,#118);
#101=AXIS2_PLACEMENT_3D('',#145,#119,#120);
#102=AXIS2_PLACEMENT_3D('',#147,#121,#122);
#103=AXIS2_PLACEMENT_3D('',#149,#123,#124);
#104=AXIS2_PLACEMENT_3D('',#150,#125,#126);
#105=AXIS2_PLACEMENT_3D('',#152,#127,#128);
#106=AXIS2_PLACEMENT_3D('',#154,#129,#130);
#107=AXIS2_PLACEMENT_3D('',#155,#131,#132);
#108=AXIS2_PLACEMENT_3D('',#157,#133,#134);
#109=AXIS2_PLACEMENT_3D('',#158,#135,#136);
#110=AXIS2_PLACEMENT_3D('',#159,#137,#138);
#111=DIRECTION('axis',(0.,0.,1.));
#112=DIRECTION('refdir',(1.,0.,0.));
#113=DIRECTION('center_axis',(0.,0.,1.));
#114=DIRECTION('ref_axis',(-1.,0.,0.));
#115=DIRECTION('center_axis',(0.,0.,1.));
#116=DIRECTION('ref_axis',(-1.,0.,0.));
#117=DIRECTION('center_axis',(0.,0.,1.));
#118=DIRECTION('ref_axis',(-1.,0.,0.));
#119=DIRECTION('center_axis',(0.,0.,1.));
#120=DIRECTION('ref_axis',(-1.,0.,0.));
#121=DIRECTION('center_axis',(0.,0.,-1.));
#122=DIRECTION('ref_axis',(-1.,0.,0.));
#123=DIRECTION('center_axis',(0.,0.,1.));
#124=DIRECTION('ref_axis',(-1.,0.,0.));
#125=DIRECTION('center_axis',(0.,0.,1.));
#126=DIRECTION('ref_axis',(-1.,0.,0.));
#127=DIRECTION('center_axis',(0.,0.,-1.));
#128=DIRECTION('ref_axis',(-1.,0.,0.));
#129=DIRECTION('center_axis',(0.,0.,1.));
#130=DIRECTION('ref_axis',(-1.,0.,0.));
#131=DIRECTION('center_axis',(0.,0.,1.));
#132=DIRECTION('ref_axis',(-1.,0.,0.));
#133=DIRECTION('center_axis',(0.,0.,-1.));
#134=DIRECTION('ref_axis',(-1.,0.,0.));
#135=DIRECTION('center_axis',(0.,0.,1.));
#136=DIRECTION('ref_axis',(1.,0.,0.));
#137=DIRECTION('center_axis',(0.,0.,1.));
#138=DIRECTION('ref_axis',(1.,0.,0.));
#139=CARTESIAN_POINT('',(0.,0.,0.));
#140=CARTESIAN_POINT('Origin',(0.,0.,8.25));
#141=CARTESIAN_POINT('',(7.15,8.75622461390358E-16,8.));
#142=CARTESIAN_POINT('Origin',(0.,0.,8.));
#143=CARTESIAN_POINT('',(7.65,9.36854801347725E-16,8.5));
#144=CARTESIAN_POINT('Origin',(0.,0.,8.5));
#145=CARTESIAN_POINT('Origin',(0.,3.2,0.));
#146=CARTESIAN_POINT('',(3.,3.2,8.));
#147=CARTESIAN_POINT('Origin',(0.,3.2,8.));
#148=CARTESIAN_POINT('',(3.,3.2,0.));
#149=CARTESIAN_POINT('Origin',(0.,3.2,0.));
#150=CARTESIAN_POINT('Origin',(3.91886975727153E-16,-3.2,0.));
#151=CARTESIAN_POINT('',(3.,-3.2,8.));
#152=CARTESIAN_POINT('Origin',(3.91886975727153E-16,-3.2,8.));
#153=CARTESIAN_POINT('',(3.,-3.2,0.));
#154=CARTESIAN_POINT('Origin',(3.91886975727153E-16,-3.2,0.));
#155=CARTESIAN_POINT('Origin',(0.,0.,0.));
#156=CARTESIAN_POINT('',(7.65,9.36854801347725E-16,0.));
#157=CARTESIAN_POINT('Origin',(0.,0.,0.));
#158=CARTESIAN_POINT('Origin',(-3.19949888048074E-16,0.,0.));
#159=CARTESIAN_POINT('Origin',(-3.19949888048074E-16,0.,8.));
#160=UNCERTAINTY_MEASURE_WITH_UNIT(LENGTH_MEASURE(0.01),#164,
'DISTANCE_ACCURACY_VALUE',
'Maximum model space distance between geometric entities at asserted c
onnectivities');
#161=UNCERTAINTY_MEASURE_WITH_UNIT(LENGTH_MEASURE(1.E-6),#164,
'DISTANCE_ACCURACY_VALUE',
'Maximum model space distance between geometric entities at asserted c
onnectivities');
#162=(
GEOMETRIC_REPRESENTATION_CONTEXT(3)
GLOBAL_UNCERTAINTY_ASSIGNED_CONTEXT((#160))
GLOBAL_UNIT_ASSIGNED_CONTEXT((#164,#167,#165))
REPRESENTATION_CONTEXT('','3D')
);
#163=(
GEOMETRIC_REPRESENTATION_CONTEXT(3)
GLOBAL_UNCERTAINTY_ASSIGNED_CONTEXT((#161))
GLOBAL_UNIT_ASSIGNED_CONTEXT((#164,#167,#165))
REPRESENTATION_CONTEXT('','3D')
);
#164=(
LENGTH_UNIT()
NAMED_UNIT(*)
SI_UNIT(.MILLI.,.METRE.)
);
#165=(
NAMED_UNIT(*)
SI_UNIT($,.STERADIAN.)
SOLID_ANGLE_UNIT()
);
#166=DIMENSIONAL_EXPONENTS(0.,0.,0.,0.,0.,0.,0.);
#167=(
CONVERSION_BASED_UNIT('degree',#169)
NAMED_UNIT(#166)
PLANE_ANGLE_UNIT()
);
#168=(
NAMED_UNIT(*)
PLANE_ANGLE_UNIT()
SI_UNIT($,.RADIAN.)
);
#169=PLANE_ANGLE_MEASURE_WITH_UNIT(PLANE_ANGLE_MEASURE(0.01745329252),#168);
#170=SHAPE_DEFINITION_REPRESENTATION(#171,#172);
#171=PRODUCT_DEFINITION_SHAPE('',$,#174);
#172=SHAPE_REPRESENTATION('',(#97),#162);
#173=PRODUCT_DEFINITION_CONTEXT('part definition',#178,'design');
#174=PRODUCT_DEFINITION('05613260',
'Mehrfachdichteinsatz-20-BT-0009-05613260',#175,#173);
#175=PRODUCT_DEFINITION_FORMATION('',$,#180);
#176=PRODUCT_RELATED_PRODUCT_CATEGORY(
'Mehrfachdichteinsatz-20-BT-0009-05613260',
'Mehrfachdichteinsatz-20-BT-0009-05613260',(#180));
#177=APPLICATION_PROTOCOL_DEFINITION('international standard',
'automotive_design',2009,#178);
#178=APPLICATION_CONTEXT(
'Core Data for Automotive Mechanical Design Process');
#179=PRODUCT_CONTEXT('part definition',#178,'mechanical');
#180=PRODUCT('05613260','Mehrfachdichteinsatz-20-BT-0009-05613260',
'Mehrfachdichteinsatz f\X\FCr Euro-Top D= 15,3mm; 2x6,0',(#179));
#181=PRESENTATION_STYLE_ASSIGNMENT((#182));
#182=SURFACE_STYLE_USAGE(.BOTH.,#183);
#183=SURFACE_SIDE_STYLE('',(#184));
#184=SURFACE_STYLE_FILL_AREA(#185);
#185=FILL_AREA_STYLE('',(#186));
#186=FILL_AREA_STYLE_COLOUR('',#187);
#187=COLOUR_RGB('',0.250980392156863,0.250980392156863,0.250980392156863);
ENDSEC;
END-ISO-10303-21;
