ISO-10303-21;
HEADER;
/* Generated by software containing ST-Developer
 * from STEP Tools, Inc. (www.steptools.com) 
 */

FILE_DESCRIPTION(
/* description */ (
'Mehrfachdichteinsatz f\X\FCr Euro-Top D= 17,4mm; 5x4,0'),
/* implementation_level */ '2;1');

FILE_NAME(
/* name */ 
'Y:\\Produkte\\Produktdaten_Produktdarstellungen\\Produktdarstellungen
_Bilder-3DModelle-etc\\3D-Modelle\\Kundenversionen\\Jacob\\RST-SL\\Meh
rfachdichteinsatz\\05616540-RST.stp',
/* time_stamp */ '2020-10-06T12:48:04+02:00',
/* author */ ('sl'),
/* organization */ (''),
/* preprocessor_version */ 'ST-DEVELOPER v16.5',
/* originating_system */ 'Autodesk Inventor 2017',
/* authorisation */ '');

FILE_SCHEMA (('AUTOMOTIVE_DESIGN { 1 0 10303 214 3 1 1 }'));
ENDSEC;

DATA;
#10=MECHANICAL_DESIGN_GEOMETRIC_PRESENTATION_REPRESENTATION('',(#13),#265);
#11=SHAPE_REPRESENTATION_RELATIONSHIP('SRR','None',#274,#12);
#12=ADVANCED_BREP_SHAPE_REPRESENTATION('',(#14),#264);
#13=STYLED_ITEM('',(#283),#14);
#14=MANIFOLD_SOLID_BREP('Volumenk\X\F6rper1',#150);
#15=PLANE('',#178);
#16=PLANE('',#179);
#17=CYLINDRICAL_SURFACE('',#161,2.);
#18=CYLINDRICAL_SURFACE('',#164,2.);
#19=CYLINDRICAL_SURFACE('',#167,2.);
#20=CYLINDRICAL_SURFACE('',#170,2.);
#21=CYLINDRICAL_SURFACE('',#173,2.);
#22=CYLINDRICAL_SURFACE('',#176,8.7);
#23=FACE_BOUND('',#50,.T.);
#24=FACE_BOUND('',#52,.T.);
#25=FACE_BOUND('',#54,.T.);
#26=FACE_BOUND('',#56,.T.);
#27=FACE_BOUND('',#58,.T.);
#28=FACE_BOUND('',#60,.T.);
#29=FACE_BOUND('',#62,.T.);
#30=FACE_BOUND('',#64,.T.);
#31=FACE_BOUND('',#65,.T.);
#32=FACE_BOUND('',#66,.T.);
#33=FACE_BOUND('',#67,.T.);
#34=FACE_BOUND('',#68,.T.);
#35=FACE_BOUND('',#70,.T.);
#36=FACE_BOUND('',#71,.T.);
#37=FACE_BOUND('',#72,.T.);
#38=FACE_BOUND('',#73,.T.);
#39=FACE_BOUND('',#74,.T.);
#40=FACE_OUTER_BOUND('',#49,.T.);
#41=FACE_OUTER_BOUND('',#51,.T.);
#42=FACE_OUTER_BOUND('',#53,.T.);
#43=FACE_OUTER_BOUND('',#55,.T.);
#44=FACE_OUTER_BOUND('',#57,.T.);
#45=FACE_OUTER_BOUND('',#59,.T.);
#46=FACE_OUTER_BOUND('',#61,.T.);
#47=FACE_OUTER_BOUND('',#63,.T.);
#48=FACE_OUTER_BOUND('',#69,.T.);
#49=EDGE_LOOP('',(#114));
#50=EDGE_LOOP('',(#115));
#51=EDGE_LOOP('',(#116));
#52=EDGE_LOOP('',(#117));
#53=EDGE_LOOP('',(#118));
#54=EDGE_LOOP('',(#119));
#55=EDGE_LOOP('',(#120));
#56=EDGE_LOOP('',(#121));
#57=EDGE_LOOP('',(#122));
#58=EDGE_LOOP('',(#123));
#59=EDGE_LOOP('',(#124));
#60=EDGE_LOOP('',(#125));
#61=EDGE_LOOP('',(#126));
#62=EDGE_LOOP('',(#127));
#63=EDGE_LOOP('',(#128));
#64=EDGE_LOOP('',(#129));
#65=EDGE_LOOP('',(#130));
#66=EDGE_LOOP('',(#131));
#67=EDGE_LOOP('',(#132));
#68=EDGE_LOOP('',(#133));
#69=EDGE_LOOP('',(#134));
#70=EDGE_LOOP('',(#135));
#71=EDGE_LOOP('',(#136));
#72=EDGE_LOOP('',(#137));
#73=EDGE_LOOP('',(#138));
#74=EDGE_LOOP('',(#139));
#75=CIRCLE('',#159,8.2);
#76=CIRCLE('',#160,8.7);
#77=CIRCLE('',#162,2.);
#78=CIRCLE('',#163,2.);
#79=CIRCLE('',#165,2.);
#80=CIRCLE('',#166,2.);
#81=CIRCLE('',#168,2.);
#82=CIRCLE('',#169,2.);
#83=CIRCLE('',#171,2.);
#84=CIRCLE('',#172,2.);
#85=CIRCLE('',#174,2.);
#86=CIRCLE('',#175,2.);
#87=CIRCLE('',#177,8.7);
#88=VERTEX_POINT('',#228);
#89=VERTEX_POINT('',#230);
#90=VERTEX_POINT('',#233);
#91=VERTEX_POINT('',#235);
#92=VERTEX_POINT('',#238);
#93=VERTEX_POINT('',#240);
#94=VERTEX_POINT('',#243);
#95=VERTEX_POINT('',#245);
#96=VERTEX_POINT('',#248);
#97=VERTEX_POINT('',#250);
#98=VERTEX_POINT('',#253);
#99=VERTEX_POINT('',#255);
#100=VERTEX_POINT('',#258);
#101=EDGE_CURVE('',#88,#88,#75,.T.);
#102=EDGE_CURVE('',#89,#89,#76,.T.);
#103=EDGE_CURVE('',#90,#90,#77,.T.);
#104=EDGE_CURVE('',#91,#91,#78,.T.);
#105=EDGE_CURVE('',#92,#92,#79,.T.);
#106=EDGE_CURVE('',#93,#93,#80,.T.);
#107=EDGE_CURVE('',#94,#94,#81,.T.);
#108=EDGE_CURVE('',#95,#95,#82,.T.);
#109=EDGE_CURVE('',#96,#96,#83,.T.);
#110=EDGE_CURVE('',#97,#97,#84,.T.);
#111=EDGE_CURVE('',#98,#98,#85,.T.);
#112=EDGE_CURVE('',#99,#99,#86,.T.);
#113=EDGE_CURVE('',#100,#100,#87,.T.);
#114=ORIENTED_EDGE('',*,*,#101,.F.);
#115=ORIENTED_EDGE('',*,*,#102,.T.);
#116=ORIENTED_EDGE('',*,*,#103,.F.);
#117=ORIENTED_EDGE('',*,*,#104,.F.);
#118=ORIENTED_EDGE('',*,*,#105,.F.);
#119=ORIENTED_EDGE('',*,*,#106,.F.);
#120=ORIENTED_EDGE('',*,*,#107,.F.);
#121=ORIENTED_EDGE('',*,*,#108,.F.);
#122=ORIENTED_EDGE('',*,*,#109,.F.);
#123=ORIENTED_EDGE('',*,*,#110,.F.);
#124=ORIENTED_EDGE('',*,*,#111,.F.);
#125=ORIENTED_EDGE('',*,*,#112,.F.);
#126=ORIENTED_EDGE('',*,*,#102,.F.);
#127=ORIENTED_EDGE('',*,*,#113,.F.);
#128=ORIENTED_EDGE('',*,*,#113,.T.);
#129=ORIENTED_EDGE('',*,*,#104,.T.);
#130=ORIENTED_EDGE('',*,*,#106,.T.);
#131=ORIENTED_EDGE('',*,*,#108,.T.);
#132=ORIENTED_EDGE('',*,*,#110,.T.);
#133=ORIENTED_EDGE('',*,*,#112,.T.);
#134=ORIENTED_EDGE('',*,*,#101,.T.);
#135=ORIENTED_EDGE('',*,*,#103,.T.);
#136=ORIENTED_EDGE('',*,*,#105,.T.);
#137=ORIENTED_EDGE('',*,*,#107,.T.);
#138=ORIENTED_EDGE('',*,*,#109,.T.);
#139=ORIENTED_EDGE('',*,*,#111,.T.);
#140=CONICAL_SURFACE('',#158,8.45,45.);
#141=ADVANCED_FACE('',(#40,#23),#140,.F.);
#142=ADVANCED_FACE('',(#41,#24),#17,.F.);
#143=ADVANCED_FACE('',(#42,#25),#18,.F.);
#144=ADVANCED_FACE('',(#43,#26),#19,.F.);
#145=ADVANCED_FACE('',(#44,#27),#20,.F.);
#146=ADVANCED_FACE('',(#45,#28),#21,.F.);
#147=ADVANCED_FACE('',(#46,#29),#22,.T.);
#148=ADVANCED_FACE('',(#47,#30,#31,#32,#33,#34),#15,.F.);
#149=ADVANCED_FACE('',(#48,#35,#36,#37,#38,#39),#16,.T.);
#150=CLOSED_SHELL('',(#141,#142,#143,#144,#145,#146,#147,#148,#149));
#151=DATE_TIME_ROLE('creation_date');
#152=APPLIED_DATE_AND_TIME_ASSIGNMENT(#153,#151,(#276));
#153=DATE_AND_TIME(#154,#155);
#154=CALENDAR_DATE(2020,5,10);
#155=LOCAL_TIME(22,0,0.,#156);
#156=COORDINATED_UNIVERSAL_TIME_OFFSET(0,0,.BEHIND.);
#157=AXIS2_PLACEMENT_3D('placement',#226,#180,#181);
#158=AXIS2_PLACEMENT_3D('',#227,#182,#183);
#159=AXIS2_PLACEMENT_3D('',#229,#184,#185);
#160=AXIS2_PLACEMENT_3D('',#231,#186,#187);
#161=AXIS2_PLACEMENT_3D('',#232,#188,#189);
#162=AXIS2_PLACEMENT_3D('',#234,#190,#191);
#163=AXIS2_PLACEMENT_3D('',#236,#192,#193);
#164=AXIS2_PLACEMENT_3D('',#237,#194,#195);
#165=AXIS2_PLACEMENT_3D('',#239,#196,#197);
#166=AXIS2_PLACEMENT_3D('',#241,#198,#199);
#167=AXIS2_PLACEMENT_3D('',#242,#200,#201);
#168=AXIS2_PLACEMENT_3D('',#244,#202,#203);
#169=AXIS2_PLACEMENT_3D('',#246,#204,#205);
#170=AXIS2_PLACEMENT_3D('',#247,#206,#207);
#171=AXIS2_PLACEMENT_3D('',#249,#208,#209);
#172=AXIS2_PLACEMENT_3D('',#251,#210,#211);
#173=AXIS2_PLACEMENT_3D('',#252,#212,#213);
#174=AXIS2_PLACEMENT_3D('',#254,#214,#215);
#175=AXIS2_PLACEMENT_3D('',#256,#216,#217);
#176=AXIS2_PLACEMENT_3D('',#257,#218,#219);
#177=AXIS2_PLACEMENT_3D('',#259,#220,#221);
#178=AXIS2_PLACEMENT_3D('',#260,#222,#223);
#179=AXIS2_PLACEMENT_3D('',#261,#224,#225);
#180=DIRECTION('axis',(0.,0.,1.));
#181=DIRECTION('refdir',(1.,0.,0.));
#182=DIRECTION('center_axis',(0.,0.,1.));
#183=DIRECTION('ref_axis',(-1.,0.,0.));
#184=DIRECTION('center_axis',(0.,0.,1.));
#185=DIRECTION('ref_axis',(-1.,0.,0.));
#186=DIRECTION('center_axis',(0.,0.,1.));
#187=DIRECTION('ref_axis',(-1.,0.,0.));
#188=DIRECTION('center_axis',(0.,0.,1.));
#189=DIRECTION('ref_axis',(-1.,0.,0.));
#190=DIRECTION('center_axis',(0.,0.,-1.));
#191=DIRECTION('ref_axis',(-1.,0.,0.));
#192=DIRECTION('center_axis',(0.,0.,1.));
#193=DIRECTION('ref_axis',(-1.,0.,0.));
#194=DIRECTION('center_axis',(0.,0.,1.));
#195=DIRECTION('ref_axis',(-1.,0.,0.));
#196=DIRECTION('center_axis',(0.,0.,-1.));
#197=DIRECTION('ref_axis',(-1.,0.,0.));
#198=DIRECTION('center_axis',(0.,0.,1.));
#199=DIRECTION('ref_axis',(-1.,0.,0.));
#200=DIRECTION('center_axis',(0.,0.,1.));
#201=DIRECTION('ref_axis',(-1.,0.,0.));
#202=DIRECTION('center_axis',(0.,0.,-1.));
#203=DIRECTION('ref_axis',(-1.,0.,0.));
#204=DIRECTION('center_axis',(0.,0.,1.));
#205=DIRECTION('ref_axis',(-1.,0.,0.));
#206=DIRECTION('center_axis',(0.,0.,1.));
#207=DIRECTION('ref_axis',(-1.,0.,0.));
#208=DIRECTION('center_axis',(0.,0.,-1.));
#209=DIRECTION('ref_axis',(-1.,0.,0.));
#210=DIRECTION('center_axis',(0.,0.,1.));
#211=DIRECTION('ref_axis',(-1.,0.,0.));
#212=DIRECTION('center_axis',(0.,0.,1.));
#213=DIRECTION('ref_axis',(-1.,0.,0.));
#214=DIRECTION('center_axis',(0.,0.,-1.));
#215=DIRECTION('ref_axis',(-1.,0.,0.));
#216=DIRECTION('center_axis',(0.,0.,1.));
#217=DIRECTION('ref_axis',(-1.,0.,0.));
#218=DIRECTION('center_axis',(0.,0.,1.));
#219=DIRECTION('ref_axis',(-1.,0.,0.));
#220=DIRECTION('center_axis',(0.,0.,-1.));
#221=DIRECTION('ref_axis',(-1.,0.,0.));
#222=DIRECTION('center_axis',(0.,0.,1.));
#223=DIRECTION('ref_axis',(1.,0.,0.));
#224=DIRECTION('center_axis',(0.,0.,1.));
#225=DIRECTION('ref_axis',(1.,0.,0.));
#226=CARTESIAN_POINT('',(0.,0.,0.));
#227=CARTESIAN_POINT('Origin',(0.,0.,8.75));
#228=CARTESIAN_POINT('',(8.2,1.00421037530083E-15,8.5));
#229=CARTESIAN_POINT('Origin',(0.,0.,8.5));
#230=CARTESIAN_POINT('',(8.7,1.0654427152582E-15,9.));
#231=CARTESIAN_POINT('Origin',(0.,0.,9.));
#232=CARTESIAN_POINT('Origin',(4.75528258147577,1.54508497187474,0.));
#233=CARTESIAN_POINT('',(6.75528258147577,1.54508497187474,8.5));
#234=CARTESIAN_POINT('Origin',(4.75528258147577,1.54508497187474,8.5));
#235=CARTESIAN_POINT('',(6.75528258147577,1.54508497187474,0.));
#236=CARTESIAN_POINT('Origin',(4.75528258147577,1.54508497187474,0.));
#237=CARTESIAN_POINT('Origin',(2.93892626146237,-4.04508497187474,0.));
#238=CARTESIAN_POINT('',(4.93892626146237,-4.04508497187474,8.5));
#239=CARTESIAN_POINT('Origin',(2.93892626146237,-4.04508497187474,8.5));
#240=CARTESIAN_POINT('',(4.93892626146237,-4.04508497187474,0.));
#241=CARTESIAN_POINT('Origin',(2.93892626146237,-4.04508497187474,0.));
#242=CARTESIAN_POINT('Origin',(-2.93892626146237,-4.04508497187474,0.));
#243=CARTESIAN_POINT('',(-0.938926261462366,-4.04508497187474,8.5));
#244=CARTESIAN_POINT('Origin',(-2.93892626146237,-4.04508497187474,8.5));
#245=CARTESIAN_POINT('',(-0.938926261462366,-4.04508497187474,0.));
#246=CARTESIAN_POINT('Origin',(-2.93892626146237,-4.04508497187474,0.));
#247=CARTESIAN_POINT('Origin',(-4.75528258147577,1.54508497187474,0.));
#248=CARTESIAN_POINT('',(-2.75528258147577,1.54508497187474,8.5));
#249=CARTESIAN_POINT('Origin',(-4.75528258147577,1.54508497187474,8.5));
#250=CARTESIAN_POINT('',(-2.75528258147577,1.54508497187474,0.));
#251=CARTESIAN_POINT('Origin',(-4.75528258147577,1.54508497187474,0.));
#252=CARTESIAN_POINT('Origin',(0.,5.,0.));
#253=CARTESIAN_POINT('',(2.,5.,8.5));
#254=CARTESIAN_POINT('Origin',(0.,5.,8.5));
#255=CARTESIAN_POINT('',(2.,5.,0.));
#256=CARTESIAN_POINT('Origin',(0.,5.,0.));
#257=CARTESIAN_POINT('Origin',(0.,0.,0.));
#258=CARTESIAN_POINT('',(8.7,1.0654427152582E-15,0.));
#259=CARTESIAN_POINT('Origin',(0.,0.,0.));
#260=CARTESIAN_POINT('Origin',(-8.87868929381831E-17,0.,0.));
#261=CARTESIAN_POINT('Origin',(-8.87868929381831E-17,0.,8.5));
#262=UNCERTAINTY_MEASURE_WITH_UNIT(LENGTH_MEASURE(0.01),#266,
'DISTANCE_ACCURACY_VALUE',
'Maximum model space distance between geometric entities at asserted c
onnectivities');
#263=UNCERTAINTY_MEASURE_WITH_UNIT(LENGTH_MEASURE(1.E-6),#266,
'DISTANCE_ACCURACY_VALUE',
'Maximum model space distance between geometric entities at asserted c
onnectivities');
#264=(
GEOMETRIC_REPRESENTATION_CONTEXT(3)
GLOBAL_UNCERTAINTY_ASSIGNED_CONTEXT((#262))
GLOBAL_UNIT_ASSIGNED_CONTEXT((#266,#269,#267))
REPRESENTATION_CONTEXT('','3D')
);
#265=(
GEOMETRIC_REPRESENTATION_CONTEXT(3)
GLOBAL_UNCERTAINTY_ASSIGNED_CONTEXT((#263))
GLOBAL_UNIT_ASSIGNED_CONTEXT((#266,#269,#267))
REPRESENTATION_CONTEXT('','3D')
);
#266=(
LENGTH_UNIT()
NAMED_UNIT(*)
SI_UNIT(.MILLI.,.METRE.)
);
#267=(
NAMED_UNIT(*)
SI_UNIT($,.STERADIAN.)
SOLID_ANGLE_UNIT()
);
#268=DIMENSIONAL_EXPONENTS(0.,0.,0.,0.,0.,0.,0.);
#269=(
CONVERSION_BASED_UNIT('degree',#271)
NAMED_UNIT(#268)
PLANE_ANGLE_UNIT()
);
#270=(
NAMED_UNIT(*)
PLANE_ANGLE_UNIT()
SI_UNIT($,.RADIAN.)
);
#271=PLANE_ANGLE_MEASURE_WITH_UNIT(PLANE_ANGLE_MEASURE(0.01745329252),#270);
#272=SHAPE_DEFINITION_REPRESENTATION(#273,#274);
#273=PRODUCT_DEFINITION_SHAPE('',$,#276);
#274=SHAPE_REPRESENTATION('',(#157),#264);
#275=PRODUCT_DEFINITION_CONTEXT('part definition',#280,'design');
#276=PRODUCT_DEFINITION('05616540',
'Mehrfachdichteinsatz-20-BT-0017-05616540',#277,#275);
#277=PRODUCT_DEFINITION_FORMATION('',$,#282);
#278=PRODUCT_RELATED_PRODUCT_CATEGORY(
'Mehrfachdichteinsatz-20-BT-0017-05616540',
'Mehrfachdichteinsatz-20-BT-0017-05616540',(#282));
#279=APPLICATION_PROTOCOL_DEFINITION('international standard',
'automotive_design',2009,#280);
#280=APPLICATION_CONTEXT(
'Core Data for Automotive Mechanical Design Process');
#281=PRODUCT_CONTEXT('part definition',#280,'mechanical');
#282=PRODUCT('05616540','Mehrfachdichteinsatz-20-BT-0017-05616540',
'Mehrfachdichteinsatz f\X\FCr Euro-Top D= 17,4mm; 5x4,0',(#281));
#283=PRESENTATION_STYLE_ASSIGNMENT((#284));
#284=SURFACE_STYLE_USAGE(.BOTH.,#285);
#285=SURFACE_SIDE_STYLE('',(#286));
#286=SURFACE_STYLE_FILL_AREA(#287);
#287=FILL_AREA_STYLE('',(#288));
#288=FILL_AREA_STYLE_COLOUR('',#289);
#289=COLOUR_RGB('',0.250980392156863,0.250980392156863,0.250980392156863);
ENDSEC;
END-ISO-10303-21;
