ISO-10303-21;
HEADER;
/* Generated by software containing ST-Developer
 * from STEP Tools, Inc. (www.steptools.com) 
 */

FILE_DESCRIPTION(
/* description */ ('Blindstift D= 9mm'),
/* implementation_level */ '2;1');

FILE_NAME(
/* name */ 
'Y:\\Produkte\\Produktdaten_Produktdarstellungen\\Produktdarstellungen
_Bilder-3DModelle-etc\\3D-Modelle\\Kundenversionen\\Rapotec\\RST-SL\\0
9600009-RST.stp',
/* time_stamp */ '2020-10-06T16:42:14+02:00',
/* author */ ('sl'),
/* organization */ ('RST'),
/* preprocessor_version */ 'ST-DEVELOPER v16.5',
/* originating_system */ 'Autodesk Inventor 2017',
/* authorisation */ '');

FILE_SCHEMA (('AUTOMOTIVE_DESIGN { 1 0 10303 214 3 1 1 }'));
ENDSEC;

DATA;
#10=MECHANICAL_DESIGN_GEOMETRIC_PRESENTATION_REPRESENTATION('',(#13),#115);
#11=SHAPE_REPRESENTATION_RELATIONSHIP('SRR','None',#124,#12);
#12=ADVANCED_BREP_SHAPE_REPRESENTATION('',(#14),#114);
#13=STYLED_ITEM('',(#133),#14);
#14=MANIFOLD_SOLID_BREP('Volumenk\X\F6rper1',#61);
#15=PLANE('',#74);
#16=PLANE('',#77);
#17=CYLINDRICAL_SURFACE('',#72,4.5);
#18=FACE_BOUND('',#27,.T.);
#19=FACE_BOUND('',#29,.T.);
#20=FACE_BOUND('',#32,.T.);
#21=FACE_OUTER_BOUND('',#26,.T.);
#22=FACE_OUTER_BOUND('',#28,.T.);
#23=FACE_OUTER_BOUND('',#30,.T.);
#24=FACE_OUTER_BOUND('',#31,.T.);
#25=FACE_OUTER_BOUND('',#33,.T.);
#26=EDGE_LOOP('',(#46));
#27=EDGE_LOOP('',(#47));
#28=EDGE_LOOP('',(#48));
#29=EDGE_LOOP('',(#49));
#30=EDGE_LOOP('',(#50));
#31=EDGE_LOOP('',(#51));
#32=EDGE_LOOP('',(#52));
#33=EDGE_LOOP('',(#53));
#34=CIRCLE('',#70,4.5);
#35=CIRCLE('',#71,4.);
#36=CIRCLE('',#73,4.5);
#37=CIRCLE('',#76,4.);
#38=VERTEX_POINT('',#100);
#39=VERTEX_POINT('',#102);
#40=VERTEX_POINT('',#105);
#41=VERTEX_POINT('',#109);
#42=EDGE_CURVE('',#38,#38,#34,.T.);
#43=EDGE_CURVE('',#39,#39,#35,.T.);
#44=EDGE_CURVE('',#40,#40,#36,.T.);
#45=EDGE_CURVE('',#41,#41,#37,.T.);
#46=ORIENTED_EDGE('',*,*,#42,.T.);
#47=ORIENTED_EDGE('',*,*,#43,.T.);
#48=ORIENTED_EDGE('',*,*,#44,.F.);
#49=ORIENTED_EDGE('',*,*,#42,.F.);
#50=ORIENTED_EDGE('',*,*,#43,.F.);
#51=ORIENTED_EDGE('',*,*,#44,.T.);
#52=ORIENTED_EDGE('',*,*,#45,.T.);
#53=ORIENTED_EDGE('',*,*,#45,.F.);
#54=CONICAL_SURFACE('',#69,4.25,45.0000000000001);
#55=CONICAL_SURFACE('',#75,4.25,45.);
#56=ADVANCED_FACE('',(#21,#18),#54,.T.);
#57=ADVANCED_FACE('',(#22,#19),#17,.T.);
#58=ADVANCED_FACE('',(#23),#15,.T.);
#59=ADVANCED_FACE('',(#24,#20),#55,.T.);
#60=ADVANCED_FACE('',(#25),#16,.F.);
#61=CLOSED_SHELL('',(#56,#57,#58,#59,#60));
#62=DATE_TIME_ROLE('creation_date');
#63=APPLIED_DATE_AND_TIME_ASSIGNMENT(#64,#62,(#126));
#64=DATE_AND_TIME(#65,#66);
#65=CALENDAR_DATE(2020,5,10);
#66=LOCAL_TIME(22,0,0.,#67);
#67=COORDINATED_UNIVERSAL_TIME_OFFSET(0,0,.BEHIND.);
#68=AXIS2_PLACEMENT_3D('placement',#98,#78,#79);
#69=AXIS2_PLACEMENT_3D('',#99,#80,#81);
#70=AXIS2_PLACEMENT_3D('',#101,#82,#83);
#71=AXIS2_PLACEMENT_3D('',#103,#84,#85);
#72=AXIS2_PLACEMENT_3D('',#104,#86,#87);
#73=AXIS2_PLACEMENT_3D('',#106,#88,#89);
#74=AXIS2_PLACEMENT_3D('',#107,#90,#91);
#75=AXIS2_PLACEMENT_3D('',#108,#92,#93);
#76=AXIS2_PLACEMENT_3D('',#110,#94,#95);
#77=AXIS2_PLACEMENT_3D('',#111,#96,#97);
#78=DIRECTION('axis',(0.,0.,1.));
#79=DIRECTION('refdir',(1.,0.,0.));
#80=DIRECTION('center_axis',(0.,0.,-1.));
#81=DIRECTION('ref_axis',(-1.,0.,0.));
#82=DIRECTION('center_axis',(0.,0.,1.));
#83=DIRECTION('ref_axis',(-1.,0.,0.));
#84=DIRECTION('center_axis',(0.,0.,-1.));
#85=DIRECTION('ref_axis',(-1.,0.,0.));
#86=DIRECTION('center_axis',(0.,0.,1.));
#87=DIRECTION('ref_axis',(-1.,0.,0.));
#88=DIRECTION('center_axis',(0.,0.,-1.));
#89=DIRECTION('ref_axis',(-1.,0.,0.));
#90=DIRECTION('center_axis',(0.,0.,1.));
#91=DIRECTION('ref_axis',(1.,0.,0.));
#92=DIRECTION('center_axis',(0.,0.,1.));
#93=DIRECTION('ref_axis',(-1.,0.,0.));
#94=DIRECTION('center_axis',(0.,0.,1.));
#95=DIRECTION('ref_axis',(-1.,0.,0.));
#96=DIRECTION('center_axis',(0.,0.,1.));
#97=DIRECTION('ref_axis',(1.,0.,0.));
#98=CARTESIAN_POINT('',(0.,0.,0.));
#99=CARTESIAN_POINT('Origin',(0.,0.,29.75));
#100=CARTESIAN_POINT('',(4.5,5.51091059616309E-16,29.5));
#101=CARTESIAN_POINT('Origin',(0.,0.,29.5));
#102=CARTESIAN_POINT('',(4.,-4.89858719658941E-16,30.));
#103=CARTESIAN_POINT('Origin',(0.,0.,30.));
#104=CARTESIAN_POINT('Origin',(0.,0.,0.));
#105=CARTESIAN_POINT('',(4.5,-5.51091059616309E-16,0.5));
#106=CARTESIAN_POINT('Origin',(0.,0.,0.5));
#107=CARTESIAN_POINT('Origin',(-4.57117967792158E-16,-1.02798428206033E-16,
30.));
#108=CARTESIAN_POINT('Origin',(0.,0.,0.25));
#109=CARTESIAN_POINT('',(4.,4.89858719658941E-16,0.));
#110=CARTESIAN_POINT('Origin',(0.,0.,0.));
#111=CARTESIAN_POINT('Origin',(-4.57117967792158E-16,-1.02798428206033E-16,
0.));
#112=UNCERTAINTY_MEASURE_WITH_UNIT(LENGTH_MEASURE(0.01),#116,
'DISTANCE_ACCURACY_VALUE',
'Maximum model space distance between geometric entities at asserted c
onnectivities');
#113=UNCERTAINTY_MEASURE_WITH_UNIT(LENGTH_MEASURE(1.E-6),#116,
'DISTANCE_ACCURACY_VALUE',
'Maximum model space distance between geometric entities at asserted c
onnectivities');
#114=(
GEOMETRIC_REPRESENTATION_CONTEXT(3)
GLOBAL_UNCERTAINTY_ASSIGNED_CONTEXT((#112))
GLOBAL_UNIT_ASSIGNED_CONTEXT((#116,#119,#117))
REPRESENTATION_CONTEXT('','3D')
);
#115=(
GEOMETRIC_REPRESENTATION_CONTEXT(3)
GLOBAL_UNCERTAINTY_ASSIGNED_CONTEXT((#113))
GLOBAL_UNIT_ASSIGNED_CONTEXT((#116,#119,#117))
REPRESENTATION_CONTEXT('','3D')
);
#116=(
LENGTH_UNIT()
NAMED_UNIT(*)
SI_UNIT(.MILLI.,.METRE.)
);
#117=(
NAMED_UNIT(*)
SI_UNIT($,.STERADIAN.)
SOLID_ANGLE_UNIT()
);
#118=DIMENSIONAL_EXPONENTS(0.,0.,0.,0.,0.,0.,0.);
#119=(
CONVERSION_BASED_UNIT('degree',#121)
NAMED_UNIT(#118)
PLANE_ANGLE_UNIT()
);
#120=(
NAMED_UNIT(*)
PLANE_ANGLE_UNIT()
SI_UNIT($,.RADIAN.)
);
#121=PLANE_ANGLE_MEASURE_WITH_UNIT(PLANE_ANGLE_MEASURE(0.01745329252),#120);
#122=SHAPE_DEFINITION_REPRESENTATION(#123,#124);
#123=PRODUCT_DEFINITION_SHAPE('',$,#126);
#124=SHAPE_REPRESENTATION('',(#68),#114);
#125=PRODUCT_DEFINITION_CONTEXT('part definition',#130,'design');
#126=PRODUCT_DEFINITION('09600009','Blindstift-01-BT-0001-09600009',#127,
#125);
#127=PRODUCT_DEFINITION_FORMATION('',$,#132);
#128=PRODUCT_RELATED_PRODUCT_CATEGORY('Blindstift-01-BT-0001-09600009',
'Blindstift-01-BT-0001-09600009',(#132));
#129=APPLICATION_PROTOCOL_DEFINITION('international standard',
'automotive_design',2009,#130);
#130=APPLICATION_CONTEXT(
'Core Data for Automotive Mechanical Design Process');
#131=PRODUCT_CONTEXT('part definition',#130,'mechanical');
#132=PRODUCT('09600009','Blindstift-01-BT-0001-09600009',
'Blindstift D= 9mm',(#131));
#133=PRESENTATION_STYLE_ASSIGNMENT((#134));
#134=SURFACE_STYLE_USAGE(.BOTH.,#135);
#135=SURFACE_SIDE_STYLE('',(#136));
#136=SURFACE_STYLE_FILL_AREA(#137);
#137=FILL_AREA_STYLE('',(#138));
#138=FILL_AREA_STYLE_COLOUR('',#139);
#139=COLOUR_RGB('',0.96078431372549,0.96078431372549,0.96078431372549);
ENDSEC;
END-ISO-10303-21;
