ISO-10303-21;
HEADER;
/* Generated by software containing ST-Developer
 * from STEP Tools, Inc. (www.steptools.com) 
 */

FILE_DESCRIPTION(
/* description */ ('Blindstopfen X3 4-8'),
/* implementation_level */ '2;1');

FILE_NAME(
/* name */ 
'Y:\\Produkte\\Produktdaten_Produktdarstellungen\\Produktdarstellungen
_Bilder-3DModelle-etc\\3D-Modelle\\Kundenversionen\\Bimed\\RST-SL\\Bli
ndstopfen-X3\\Doppeldichtung\\82007516X3DS-RST.stp',
/* time_stamp */ '2021-03-22T12:55:09+01:00',
/* author */ ('sl'),
/* organization */ (''),
/* preprocessor_version */ 'ST-DEVELOPER v16.5',
/* originating_system */ 'Autodesk Inventor 2017',
/* authorisation */ '');

FILE_SCHEMA (('AUTOMOTIVE_DESIGN { 1 0 10303 214 3 1 1 }'));
ENDSEC;

DATA;
#10=MECHANICAL_DESIGN_GEOMETRIC_PRESENTATION_REPRESENTATION('',(#108,#106,
#110,#109,#112,#107,#113,#111,#114,#105),#246);
#11=SHAPE_REPRESENTATION_RELATIONSHIP('SRR','None',#255,#12);
#12=ADVANCED_BREP_SHAPE_REPRESENTATION('',(#13),#245);
#13=MANIFOLD_SOLID_BREP('Volumenk\X\F6rper1',#124);
#14=(
BOUNDED_CURVE()
B_SPLINE_CURVE(2,(#236,#237,#238),.UNSPECIFIED.,.F.,.F.)
B_SPLINE_CURVE_WITH_KNOTS((3,3),(0.053435823129985,1.56613132201035),
 .UNSPECIFIED.)
CURVE()
GEOMETRIC_REPRESENTATION_ITEM()
RATIONAL_B_SPLINE_CURVE((1.,0.727347284616237,1.))
REPRESENTATION_ITEM('')
);
#15=(
BOUNDED_SURFACE()
B_SPLINE_SURFACE(2,2,((#204,#205,#206,#207,#208,#209,#210,#211,#212),(#213,
#214,#215,#216,#217,#218,#219,#220,#221),(#222,#223,#224,#225,#226,#227,
#228,#229,#230)),.UNSPECIFIED.,.F.,.T.,.F.)
B_SPLINE_SURFACE_WITH_KNOTS((3,3),(3,2,2,2,3),(-1.56613132201035,-0.053435823129985),
(-3.14159265358979,-1.5707963267949,0.,1.5707963267949,3.14159265358979),
 .UNSPECIFIED.)
GEOMETRIC_REPRESENTATION_ITEM()
RATIONAL_B_SPLINE_SURFACE(((1.,0.707106781186548,1.,0.707106781186548,1.,
0.707106781186548,1.,0.707106781186548,1.),(0.727347284616237,0.514312197229763,
0.727347284616237,0.514312197229763,0.727347284616237,0.514312197229763,
0.727347284616237,0.514312197229763,0.727347284616237),(1.,0.707106781186548,
1.,0.707106781186548,1.,0.707106781186548,1.,0.707106781186548,1.)))
REPRESENTATION_ITEM('')
SURFACE()
);
#16=CYLINDRICAL_SURFACE('',#139,1.5);
#17=CYLINDRICAL_SURFACE('',#148,2.5);
#18=TOROIDAL_SURFACE('',#137,1.8,0.300000000000001);
#19=TOROIDAL_SURFACE('',#141,1.,0.500000000000003);
#20=PLANE('',#135);
#21=PLANE('',#143);
#22=PLANE('',#146);
#23=FACE_BOUND('',#40,.T.);
#24=FACE_BOUND('',#42,.T.);
#25=FACE_BOUND('',#44,.T.);
#26=FACE_BOUND('',#46,.T.);
#27=FACE_BOUND('',#48,.T.);
#28=FACE_BOUND('',#52,.T.);
#29=FACE_BOUND('',#54,.T.);
#30=FACE_OUTER_BOUND('',#39,.T.);
#31=FACE_OUTER_BOUND('',#41,.T.);
#32=FACE_OUTER_BOUND('',#43,.T.);
#33=FACE_OUTER_BOUND('',#45,.T.);
#34=FACE_OUTER_BOUND('',#47,.T.);
#35=FACE_OUTER_BOUND('',#49,.T.);
#36=FACE_OUTER_BOUND('',#50,.T.);
#37=FACE_OUTER_BOUND('',#51,.T.);
#38=FACE_OUTER_BOUND('',#53,.T.);
#39=EDGE_LOOP('',(#84));
#40=EDGE_LOOP('',(#85));
#41=EDGE_LOOP('',(#86));
#42=EDGE_LOOP('',(#87));
#43=EDGE_LOOP('',(#88));
#44=EDGE_LOOP('',(#89));
#45=EDGE_LOOP('',(#90));
#46=EDGE_LOOP('',(#91));
#47=EDGE_LOOP('',(#92));
#48=EDGE_LOOP('',(#93));
#49=EDGE_LOOP('',(#94));
#50=EDGE_LOOP('',(#95,#96,#97,#98));
#51=EDGE_LOOP('',(#99,#100));
#52=EDGE_LOOP('',(#101));
#53=EDGE_LOOP('',(#102));
#54=EDGE_LOOP('',(#103));
#55=CIRCLE('',#133,2.);
#56=CIRCLE('',#134,2.5);
#57=CIRCLE('',#136,1.8);
#58=CIRCLE('',#138,1.5);
#59=CIRCLE('',#140,1.5);
#60=CIRCLE('',#142,1.);
#61=CIRCLE('',#144,5.25);
#62=CIRCLE('',#145,5.25);
#63=CIRCLE('',#147,2.5);
#64=VERTEX_POINT('',#187);
#65=VERTEX_POINT('',#189);
#66=VERTEX_POINT('',#192);
#67=VERTEX_POINT('',#195);
#68=VERTEX_POINT('',#198);
#69=VERTEX_POINT('',#201);
#70=VERTEX_POINT('',#231);
#71=VERTEX_POINT('',#232);
#72=VERTEX_POINT('',#235);
#73=VERTEX_POINT('',#240);
#74=EDGE_CURVE('',#64,#64,#55,.T.);
#75=EDGE_CURVE('',#65,#65,#56,.T.);
#76=EDGE_CURVE('',#66,#66,#57,.T.);
#77=EDGE_CURVE('',#67,#67,#58,.T.);
#78=EDGE_CURVE('',#68,#68,#59,.T.);
#79=EDGE_CURVE('',#69,#69,#60,.T.);
#80=EDGE_CURVE('',#70,#71,#61,.T.);
#81=EDGE_CURVE('',#71,#70,#62,.T.);
#82=EDGE_CURVE('',#71,#72,#14,.T.);
#83=EDGE_CURVE('',#73,#73,#63,.T.);
#84=ORIENTED_EDGE('',*,*,#74,.F.);
#85=ORIENTED_EDGE('',*,*,#75,.T.);
#86=ORIENTED_EDGE('',*,*,#74,.T.);
#87=ORIENTED_EDGE('',*,*,#76,.F.);
#88=ORIENTED_EDGE('',*,*,#77,.F.);
#89=ORIENTED_EDGE('',*,*,#76,.T.);
#90=ORIENTED_EDGE('',*,*,#78,.F.);
#91=ORIENTED_EDGE('',*,*,#77,.T.);
#92=ORIENTED_EDGE('',*,*,#79,.F.);
#93=ORIENTED_EDGE('',*,*,#78,.T.);
#94=ORIENTED_EDGE('',*,*,#79,.T.);
#95=ORIENTED_EDGE('',*,*,#80,.F.);
#96=ORIENTED_EDGE('',*,*,#81,.F.);
#97=ORIENTED_EDGE('',*,*,#82,.T.);
#98=ORIENTED_EDGE('',*,*,#82,.F.);
#99=ORIENTED_EDGE('',*,*,#80,.T.);
#100=ORIENTED_EDGE('',*,*,#81,.T.);
#101=ORIENTED_EDGE('',*,*,#83,.F.);
#102=ORIENTED_EDGE('',*,*,#75,.F.);
#103=ORIENTED_EDGE('',*,*,#83,.T.);
#104=CONICAL_SURFACE('',#132,2.25,45.);
#105=STYLED_ITEM('',(#265),#115);
#106=STYLED_ITEM('',(#265),#116);
#107=STYLED_ITEM('',(#265),#117);
#108=STYLED_ITEM('',(#265),#118);
#109=STYLED_ITEM('',(#265),#119);
#110=STYLED_ITEM('',(#265),#120);
#111=STYLED_ITEM('',(#265),#121);
#112=STYLED_ITEM('',(#265),#122);
#113=STYLED_ITEM('',(#265),#123);
#114=STYLED_ITEM('',(#264),#13);
#115=ADVANCED_FACE('',(#30,#23),#104,.T.);
#116=ADVANCED_FACE('',(#31,#24),#20,.T.);
#117=ADVANCED_FACE('',(#32,#25),#18,.T.);
#118=ADVANCED_FACE('',(#33,#26),#16,.F.);
#119=ADVANCED_FACE('',(#34,#27),#19,.F.);
#120=ADVANCED_FACE('',(#35),#21,.T.);
#121=ADVANCED_FACE('',(#36),#15,.F.);
#122=ADVANCED_FACE('',(#37,#28),#22,.T.);
#123=ADVANCED_FACE('',(#38,#29),#17,.T.);
#124=CLOSED_SHELL('',(#115,#116,#117,#118,#119,#120,#121,#122,#123));
#125=DATE_TIME_ROLE('creation_date');
#126=APPLIED_DATE_AND_TIME_ASSIGNMENT(#127,#125,(#257));
#127=DATE_AND_TIME(#128,#129);
#128=CALENDAR_DATE(2021,21,3);
#129=LOCAL_TIME(23,0,0.,#130);
#130=COORDINATED_UNIVERSAL_TIME_OFFSET(0,0,.BEHIND.);
#131=AXIS2_PLACEMENT_3D('placement',#185,#149,#150);
#132=AXIS2_PLACEMENT_3D('',#186,#151,#152);
#133=AXIS2_PLACEMENT_3D('',#188,#153,#154);
#134=AXIS2_PLACEMENT_3D('',#190,#155,#156);
#135=AXIS2_PLACEMENT_3D('',#191,#157,#158);
#136=AXIS2_PLACEMENT_3D('',#193,#159,#160);
#137=AXIS2_PLACEMENT_3D('',#194,#161,#162);
#138=AXIS2_PLACEMENT_3D('',#196,#163,#164);
#139=AXIS2_PLACEMENT_3D('',#197,#165,#166);
#140=AXIS2_PLACEMENT_3D('',#199,#167,#168);
#141=AXIS2_PLACEMENT_3D('',#200,#169,#170);
#142=AXIS2_PLACEMENT_3D('',#202,#171,#172);
#143=AXIS2_PLACEMENT_3D('',#203,#173,#174);
#144=AXIS2_PLACEMENT_3D('',#233,#175,#176);
#145=AXIS2_PLACEMENT_3D('',#234,#177,#178);
#146=AXIS2_PLACEMENT_3D('',#239,#179,#180);
#147=AXIS2_PLACEMENT_3D('',#241,#181,#182);
#148=AXIS2_PLACEMENT_3D('',#242,#183,#184);
#149=DIRECTION('axis',(0.,0.,1.));
#150=DIRECTION('refdir',(1.,0.,0.));
#151=DIRECTION('center_axis',(-1.,1.38205695930705E-16,0.));
#152=DIRECTION('ref_axis',(0.,1.,0.));
#153=DIRECTION('center_axis',(1.,-1.38205695930705E-16,0.));
#154=DIRECTION('ref_axis',(0.,0.,-1.));
#155=DIRECTION('center_axis',(1.,-1.38205695930705E-16,0.));
#156=DIRECTION('ref_axis',(0.,0.,-1.));
#157=DIRECTION('center_axis',(1.,-1.38205695930705E-16,0.));
#158=DIRECTION('ref_axis',(0.,0.,-1.));
#159=DIRECTION('center_axis',(1.,-1.38205695930705E-16,0.));
#160=DIRECTION('ref_axis',(0.,0.,-1.));
#161=DIRECTION('center_axis',(1.,-1.38205695930705E-16,0.));
#162=DIRECTION('ref_axis',(0.,0.,-1.));
#163=DIRECTION('center_axis',(1.,-1.38205695930705E-16,0.));
#164=DIRECTION('ref_axis',(0.,0.,-1.));
#165=DIRECTION('center_axis',(1.,-1.38205695930705E-16,0.));
#166=DIRECTION('ref_axis',(0.,1.,0.));
#167=DIRECTION('center_axis',(1.,-1.38205695930705E-16,0.));
#168=DIRECTION('ref_axis',(0.,0.,-1.));
#169=DIRECTION('center_axis',(1.,-1.38205695930705E-16,0.));
#170=DIRECTION('ref_axis',(0.,0.,-1.));
#171=DIRECTION('center_axis',(1.,-1.38205695930705E-16,0.));
#172=DIRECTION('ref_axis',(0.,0.,-1.));
#173=DIRECTION('center_axis',(1.,-1.38205695930705E-16,0.));
#174=DIRECTION('ref_axis',(0.,0.,-1.));
#175=DIRECTION('center_axis',(1.,-1.38205695930705E-16,0.));
#176=DIRECTION('ref_axis',(0.,0.,-1.));
#177=DIRECTION('center_axis',(1.,-1.38205695930705E-16,0.));
#178=DIRECTION('ref_axis',(0.,0.,-1.));
#179=DIRECTION('center_axis',(1.,-1.38205695930705E-16,0.));
#180=DIRECTION('ref_axis',(0.,0.,-1.));
#181=DIRECTION('center_axis',(1.,-1.38205695930705E-16,0.));
#182=DIRECTION('ref_axis',(0.,0.,-1.));
#183=DIRECTION('center_axis',(1.,-1.38205695930705E-16,0.));
#184=DIRECTION('ref_axis',(0.,1.,0.));
#185=CARTESIAN_POINT('',(0.,0.,0.));
#186=CARTESIAN_POINT('Origin',(-0.25,3.45514239826762E-17,0.));
#187=CARTESIAN_POINT('',(0.,2.,0.));
#188=CARTESIAN_POINT('Origin',(0.,0.,0.));
#189=CARTESIAN_POINT('',(-0.5,2.5,0.));
#190=CARTESIAN_POINT('Origin',(-0.5,6.91028479653525E-17,0.));
#191=CARTESIAN_POINT('Origin',(0.,1.8,0.));
#192=CARTESIAN_POINT('',(0.,1.8,0.));
#193=CARTESIAN_POINT('Origin',(0.,0.,0.));
#194=CARTESIAN_POINT('Origin',(-0.3,4.14617087792115E-17,0.));
#195=CARTESIAN_POINT('',(-0.3,1.5,0.));
#196=CARTESIAN_POINT('Origin',(-0.3,4.14617087792115E-17,0.));
#197=CARTESIAN_POINT('Origin',(-6.9,9.53619301921865E-16,0.));
#198=CARTESIAN_POINT('',(-13.5,1.5,0.));
#199=CARTESIAN_POINT('Origin',(-13.5,1.86577689506452E-15,0.));
#200=CARTESIAN_POINT('Origin',(-13.5,1.86577689506452E-15,0.));
#201=CARTESIAN_POINT('',(-14.,1.,0.));
#202=CARTESIAN_POINT('Origin',(-14.,1.93487974302987E-15,0.));
#203=CARTESIAN_POINT('Origin',(-14.,1.94289029309402E-15,0.));
#204=CARTESIAN_POINT('Ctrl Pts',(-19.,2.6259082226834E-15,3.33934269125535E-16));
#205=CARTESIAN_POINT('Ctrl Pts',(-19.,2.29197395355786E-15,3.33934269125535E-16));
#206=CARTESIAN_POINT('Ctrl Pts',(-19.,2.29197395355786E-15,0.));
#207=CARTESIAN_POINT('Ctrl Pts',(-19.,2.29197395355786E-15,-3.33934269125535E-16));
#208=CARTESIAN_POINT('Ctrl Pts',(-19.,2.6259082226834E-15,-3.33934269125535E-16));
#209=CARTESIAN_POINT('Ctrl Pts',(-19.,2.95984249180893E-15,-3.33934269125535E-16));
#210=CARTESIAN_POINT('Ctrl Pts',(-19.,2.95984249180893E-15,0.));
#211=CARTESIAN_POINT('Ctrl Pts',(-19.,2.95984249180893E-15,3.33934269125535E-16));
#212=CARTESIAN_POINT('Ctrl Pts',(-19.,2.6259082226834E-15,3.33934269125535E-16));
#213=CARTESIAN_POINT('Ctrl Pts',(-18.9767503345842,2.62269498649446E-15,
4.98380984246117));
#214=CARTESIAN_POINT('Ctrl Pts',(-18.9767503345842,-4.98380984246117,4.98380984246117));
#215=CARTESIAN_POINT('Ctrl Pts',(-18.9767503345842,-4.98380984246117,0.));
#216=CARTESIAN_POINT('Ctrl Pts',(-18.9767503345842,-4.98380984246117,-4.98380984246117));
#217=CARTESIAN_POINT('Ctrl Pts',(-18.9767503345842,2.62269498649446E-15,
-4.98380984246117));
#218=CARTESIAN_POINT('Ctrl Pts',(-18.9767503345842,4.98380984246117,-4.98380984246117));
#219=CARTESIAN_POINT('Ctrl Pts',(-18.9767503345842,4.98380984246118,0.));
#220=CARTESIAN_POINT('Ctrl Pts',(-18.9767503345842,4.98380984246117,4.98380984246117));
#221=CARTESIAN_POINT('Ctrl Pts',(-18.9767503345842,2.62269498649446E-15,
4.98380984246117));
#222=CARTESIAN_POINT('Ctrl Pts',(-14.,1.93487974302987E-15,5.25));
#223=CARTESIAN_POINT('Ctrl Pts',(-14.,-5.24999999999999,5.25));
#224=CARTESIAN_POINT('Ctrl Pts',(-14.,-5.25,2.46519032881566E-31));
#225=CARTESIAN_POINT('Ctrl Pts',(-14.,-5.24999999999999,-5.25));
#226=CARTESIAN_POINT('Ctrl Pts',(-14.,1.93487974302987E-15,-5.25));
#227=CARTESIAN_POINT('Ctrl Pts',(-14.,5.25,-5.25));
#228=CARTESIAN_POINT('Ctrl Pts',(-14.,5.25,-2.46519032881566E-31));
#229=CARTESIAN_POINT('Ctrl Pts',(-14.,5.25,5.25));
#230=CARTESIAN_POINT('Ctrl Pts',(-14.,1.93487974302987E-15,5.25));
#231=CARTESIAN_POINT('',(-14.,5.25,0.));
#232=CARTESIAN_POINT('',(-14.,1.93487974302987E-15,5.25));
#233=CARTESIAN_POINT('Origin',(-14.,1.93487974302987E-15,0.));
#234=CARTESIAN_POINT('Origin',(-14.,1.93487974302987E-15,0.));
#235=CARTESIAN_POINT('',(-19.,-1.01547225703948E-15,0.));
#236=CARTESIAN_POINT('Ctrl Pts',(-14.,1.93487974302987E-15,5.25));
#237=CARTESIAN_POINT('Ctrl Pts',(-18.9767503345842,2.62269498649446E-15,
4.98380984246117));
#238=CARTESIAN_POINT('Ctrl Pts',(-19.,2.6259082226834E-15,3.33934269125535E-16));
#239=CARTESIAN_POINT('Origin',(-14.,2.5,0.));
#240=CARTESIAN_POINT('',(-14.,2.5,0.));
#241=CARTESIAN_POINT('Origin',(-14.,1.93487974302987E-15,0.));
#242=CARTESIAN_POINT('Origin',(-7.25,1.00199129549761E-15,0.));
#243=UNCERTAINTY_MEASURE_WITH_UNIT(LENGTH_MEASURE(0.01),#247,
'DISTANCE_ACCURACY_VALUE',
'Maximum model space distance between geometric entities at asserted c
onnectivities');
#244=UNCERTAINTY_MEASURE_WITH_UNIT(LENGTH_MEASURE(1.E-6),#247,
'DISTANCE_ACCURACY_VALUE',
'Maximum model space distance between geometric entities at asserted c
onnectivities');
#245=(
GEOMETRIC_REPRESENTATION_CONTEXT(3)
GLOBAL_UNCERTAINTY_ASSIGNED_CONTEXT((#243))
GLOBAL_UNIT_ASSIGNED_CONTEXT((#247,#250,#248))
REPRESENTATION_CONTEXT('','3D')
);
#246=(
GEOMETRIC_REPRESENTATION_CONTEXT(3)
GLOBAL_UNCERTAINTY_ASSIGNED_CONTEXT((#244))
GLOBAL_UNIT_ASSIGNED_CONTEXT((#247,#250,#248))
REPRESENTATION_CONTEXT('','3D')
);
#247=(
LENGTH_UNIT()
NAMED_UNIT(*)
SI_UNIT(.MILLI.,.METRE.)
);
#248=(
NAMED_UNIT(*)
SI_UNIT($,.STERADIAN.)
SOLID_ANGLE_UNIT()
);
#249=DIMENSIONAL_EXPONENTS(0.,0.,0.,0.,0.,0.,0.);
#250=(
CONVERSION_BASED_UNIT('degree',#252)
NAMED_UNIT(#249)
PLANE_ANGLE_UNIT()
);
#251=(
NAMED_UNIT(*)
PLANE_ANGLE_UNIT()
SI_UNIT($,.RADIAN.)
);
#252=PLANE_ANGLE_MEASURE_WITH_UNIT(PLANE_ANGLE_MEASURE(0.01745329252),#251);
#253=SHAPE_DEFINITION_REPRESENTATION(#254,#255);
#254=PRODUCT_DEFINITION_SHAPE('',$,#257);
#255=SHAPE_REPRESENTATION('',(#131),#245);
#256=PRODUCT_DEFINITION_CONTEXT('part definition',#261,'design');
#257=PRODUCT_DEFINITION('82007516X3DS',
'Blindstopfen-01-BT-0002-82007516X3DS',#258,#256);
#258=PRODUCT_DEFINITION_FORMATION('',$,#263);
#259=PRODUCT_RELATED_PRODUCT_CATEGORY(
'Blindstopfen-01-BT-0002-82007516X3DS',
'Blindstopfen-01-BT-0002-82007516X3DS',(#263));
#260=APPLICATION_PROTOCOL_DEFINITION('international standard',
'automotive_design',2009,#261);
#261=APPLICATION_CONTEXT(
'Core Data for Automotive Mechanical Design Process');
#262=PRODUCT_CONTEXT('part definition',#261,'mechanical');
#263=PRODUCT('82007516X3DS','Blindstopfen-01-BT-0002-82007516X3DS',
'Blindstopfen X3 4-8',(#262));
#264=PRESENTATION_STYLE_ASSIGNMENT((#266));
#265=PRESENTATION_STYLE_ASSIGNMENT((#267));
#266=SURFACE_STYLE_USAGE(.BOTH.,#268);
#267=SURFACE_STYLE_USAGE(.BOTH.,#269);
#268=SURFACE_SIDE_STYLE('',(#270));
#269=SURFACE_SIDE_STYLE('',(#271));
#270=SURFACE_STYLE_FILL_AREA(#272);
#271=SURFACE_STYLE_FILL_AREA(#273);
#272=FILL_AREA_STYLE('',(#274));
#273=FILL_AREA_STYLE('',(#275));
#274=FILL_AREA_STYLE_COLOUR('',#276);
#275=FILL_AREA_STYLE_COLOUR('',#277);
#276=COLOUR_RGB('',0.945098039215686,0.949019607843137,0.972549019607843);
#277=COLOUR_RGB('',0.0196078431372549,0.0196078431372549,0.0196078431372549);
ENDSEC;
END-ISO-10303-21;
