ISO-10303-21;
HEADER;
/* Generated by software containing ST-Developer
 * from STEP Tools, Inc. (www.steptools.com) 
 */

FILE_DESCRIPTION(
/* description */ ('Blindstopfen X3 4-10'),
/* implementation_level */ '2;1');

FILE_NAME(
/* name */ 
'Y:\\Produkte\\Produktdaten_Produktdarstellungen\\Produktdarstellungen
_Bilder-3DModelle-etc\\3D-Modelle\\Kundenversionen\\Bimed\\RST-SL\\Bli
ndstopfen-X3\\Doppeldichtung\\82007517X3DS-RST.stp',
/* time_stamp */ '2021-03-22T12:57:17+01:00',
/* author */ ('sl'),
/* organization */ (''),
/* preprocessor_version */ 'ST-DEVELOPER v16.5',
/* originating_system */ 'Autodesk Inventor 2017',
/* authorisation */ '');

FILE_SCHEMA (('AUTOMOTIVE_DESIGN { 1 0 10303 214 3 1 1 }'));
ENDSEC;

DATA;
#10=MECHANICAL_DESIGN_GEOMETRIC_PRESENTATION_REPRESENTATION('',(#107,#108,
#112,#110,#109,#111,#115,#113,#114,#116),#252);
#11=SHAPE_REPRESENTATION_RELATIONSHIP('SRR','None',#261,#12);
#12=ADVANCED_BREP_SHAPE_REPRESENTATION('',(#13),#251);
#13=MANIFOLD_SOLID_BREP('Volumenk\X\F6rper1',#126);
#14=SPHERICAL_SURFACE('',#147,6.72916666666669);
#15=(
BOUNDED_CURVE()
B_SPLINE_CURVE(2,(#235,#236,#237),.UNSPECIFIED.,.F.,.F.)
B_SPLINE_CURVE_WITH_KNOTS((3,3),(1.2444494057128E-15,1.5707963267949),
 .UNSPECIFIED.)
CURVE()
GEOMETRIC_REPRESENTATION_ITEM()
RATIONAL_B_SPLINE_CURVE((1.,0.707106781186543,1.))
REPRESENTATION_ITEM('')
);
#16=(
BOUNDED_SURFACE()
B_SPLINE_SURFACE(2,2,((#207,#208,#209,#210,#211,#212,#213,#214,#215),(#216,
#217,#218,#219,#220,#221,#222,#223,#224),(#225,#226,#227,#228,#229,#230,
#231,#232,#233)),.UNSPECIFIED.,.F.,.T.,.F.)
B_SPLINE_SURFACE_WITH_KNOTS((3,3),(3,2,2,2,3),(-1.5707963267949,-1.2444494057128E-15),
(-3.14159265358979,-1.5707963267949,0.,1.5707963267949,3.14159265358979),
 .UNSPECIFIED.)
GEOMETRIC_REPRESENTATION_ITEM()
RATIONAL_B_SPLINE_SURFACE(((1.,0.707106781186548,1.,0.707106781186548,1.,
0.707106781186548,1.,0.707106781186548,1.),(0.707106781186543,0.499999999999997,
0.707106781186543,0.499999999999997,0.707106781186543,0.499999999999997,
0.707106781186543,0.499999999999997,0.707106781186543),(1.,0.707106781186548,
1.,0.707106781186548,1.,0.707106781186548,1.,0.707106781186548,1.)))
REPRESENTATION_ITEM('')
SURFACE()
);
#17=CYLINDRICAL_SURFACE('',#141,1.99999999999999);
#18=CYLINDRICAL_SURFACE('',#151,3.49999999999999);
#19=TOROIDAL_SURFACE('',#139,2.3,0.300000000000001);
#20=PLANE('',#137);
#21=PLANE('',#146);
#22=PLANE('',#149);
#23=FACE_BOUND('',#39,.T.);
#24=FACE_BOUND('',#41,.T.);
#25=FACE_BOUND('',#43,.T.);
#26=FACE_BOUND('',#45,.T.);
#27=FACE_BOUND('',#50,.T.);
#28=FACE_BOUND('',#52,.T.);
#29=FACE_OUTER_BOUND('',#38,.T.);
#30=FACE_OUTER_BOUND('',#40,.T.);
#31=FACE_OUTER_BOUND('',#42,.T.);
#32=FACE_OUTER_BOUND('',#44,.T.);
#33=FACE_OUTER_BOUND('',#46,.T.);
#34=FACE_OUTER_BOUND('',#47,.T.);
#35=FACE_OUTER_BOUND('',#48,.T.);
#36=FACE_OUTER_BOUND('',#49,.T.);
#37=FACE_OUTER_BOUND('',#51,.T.);
#38=EDGE_LOOP('',(#84));
#39=EDGE_LOOP('',(#85));
#40=EDGE_LOOP('',(#86));
#41=EDGE_LOOP('',(#87));
#42=EDGE_LOOP('',(#88));
#43=EDGE_LOOP('',(#89));
#44=EDGE_LOOP('',(#90,#91));
#45=EDGE_LOOP('',(#92));
#46=EDGE_LOOP('',(#93,#94,#95,#96,#97,#98));
#47=EDGE_LOOP('',(#99,#100));
#48=EDGE_LOOP('',(#101));
#49=EDGE_LOOP('',(#102));
#50=EDGE_LOOP('',(#103));
#51=EDGE_LOOP('',(#104));
#52=EDGE_LOOP('',(#105));
#53=CIRCLE('',#135,2.5);
#54=CIRCLE('',#136,3.5);
#55=CIRCLE('',#138,2.3);
#56=CIRCLE('',#140,2.);
#57=CIRCLE('',#142,1.99999999999998);
#58=CIRCLE('',#143,1.99999999999998);
#59=CIRCLE('',#144,0.999999999999979);
#60=CIRCLE('',#145,0.999999999999979);
#61=CIRCLE('',#148,6.64999999999997);
#62=CIRCLE('',#150,3.49999999999998);
#63=VERTEX_POINT('',#192);
#64=VERTEX_POINT('',#194);
#65=VERTEX_POINT('',#197);
#66=VERTEX_POINT('',#200);
#67=VERTEX_POINT('',#203);
#68=VERTEX_POINT('',#204);
#69=VERTEX_POINT('',#234);
#70=VERTEX_POINT('',#238);
#71=VERTEX_POINT('',#243);
#72=VERTEX_POINT('',#246);
#73=EDGE_CURVE('',#63,#63,#53,.T.);
#74=EDGE_CURVE('',#64,#64,#54,.T.);
#75=EDGE_CURVE('',#65,#65,#55,.T.);
#76=EDGE_CURVE('',#66,#66,#56,.T.);
#77=EDGE_CURVE('',#67,#68,#57,.T.);
#78=EDGE_CURVE('',#68,#67,#58,.T.);
#79=EDGE_CURVE('',#68,#69,#15,.T.);
#80=EDGE_CURVE('',#70,#69,#59,.T.);
#81=EDGE_CURVE('',#69,#70,#60,.T.);
#82=EDGE_CURVE('',#71,#71,#61,.T.);
#83=EDGE_CURVE('',#72,#72,#62,.T.);
#84=ORIENTED_EDGE('',*,*,#73,.F.);
#85=ORIENTED_EDGE('',*,*,#74,.T.);
#86=ORIENTED_EDGE('',*,*,#73,.T.);
#87=ORIENTED_EDGE('',*,*,#75,.F.);
#88=ORIENTED_EDGE('',*,*,#76,.F.);
#89=ORIENTED_EDGE('',*,*,#75,.T.);
#90=ORIENTED_EDGE('',*,*,#77,.F.);
#91=ORIENTED_EDGE('',*,*,#78,.F.);
#92=ORIENTED_EDGE('',*,*,#76,.T.);
#93=ORIENTED_EDGE('',*,*,#77,.T.);
#94=ORIENTED_EDGE('',*,*,#79,.T.);
#95=ORIENTED_EDGE('',*,*,#80,.F.);
#96=ORIENTED_EDGE('',*,*,#81,.F.);
#97=ORIENTED_EDGE('',*,*,#79,.F.);
#98=ORIENTED_EDGE('',*,*,#78,.T.);
#99=ORIENTED_EDGE('',*,*,#80,.T.);
#100=ORIENTED_EDGE('',*,*,#81,.T.);
#101=ORIENTED_EDGE('',*,*,#82,.F.);
#102=ORIENTED_EDGE('',*,*,#82,.T.);
#103=ORIENTED_EDGE('',*,*,#83,.F.);
#104=ORIENTED_EDGE('',*,*,#74,.F.);
#105=ORIENTED_EDGE('',*,*,#83,.T.);
#106=CONICAL_SURFACE('',#134,3.,44.9999999999999);
#107=STYLED_ITEM('',(#271),#117);
#108=STYLED_ITEM('',(#271),#118);
#109=STYLED_ITEM('',(#271),#119);
#110=STYLED_ITEM('',(#271),#120);
#111=STYLED_ITEM('',(#271),#121);
#112=STYLED_ITEM('',(#271),#122);
#113=STYLED_ITEM('',(#271),#123);
#114=STYLED_ITEM('',(#271),#124);
#115=STYLED_ITEM('',(#271),#125);
#116=STYLED_ITEM('',(#270),#13);
#117=ADVANCED_FACE('',(#29,#23),#106,.T.);
#118=ADVANCED_FACE('',(#30,#24),#20,.T.);
#119=ADVANCED_FACE('',(#31,#25),#19,.T.);
#120=ADVANCED_FACE('',(#32,#26),#17,.F.);
#121=ADVANCED_FACE('',(#33),#16,.T.);
#122=ADVANCED_FACE('',(#34),#21,.T.);
#123=ADVANCED_FACE('',(#35),#14,.T.);
#124=ADVANCED_FACE('',(#36,#27),#22,.T.);
#125=ADVANCED_FACE('',(#37,#28),#18,.T.);
#126=CLOSED_SHELL('',(#117,#118,#119,#120,#121,#122,#123,#124,#125));
#127=DATE_TIME_ROLE('creation_date');
#128=APPLIED_DATE_AND_TIME_ASSIGNMENT(#129,#127,(#263));
#129=DATE_AND_TIME(#130,#131);
#130=CALENDAR_DATE(2021,21,3);
#131=LOCAL_TIME(23,0,0.,#132);
#132=COORDINATED_UNIVERSAL_TIME_OFFSET(0,0,.BEHIND.);
#133=AXIS2_PLACEMENT_3D('placement',#190,#152,#153);
#134=AXIS2_PLACEMENT_3D('',#191,#154,#155);
#135=AXIS2_PLACEMENT_3D('',#193,#156,#157);
#136=AXIS2_PLACEMENT_3D('',#195,#158,#159);
#137=AXIS2_PLACEMENT_3D('',#196,#160,#161);
#138=AXIS2_PLACEMENT_3D('',#198,#162,#163);
#139=AXIS2_PLACEMENT_3D('',#199,#164,#165);
#140=AXIS2_PLACEMENT_3D('',#201,#166,#167);
#141=AXIS2_PLACEMENT_3D('',#202,#168,#169);
#142=AXIS2_PLACEMENT_3D('',#205,#170,#171);
#143=AXIS2_PLACEMENT_3D('',#206,#172,#173);
#144=AXIS2_PLACEMENT_3D('',#239,#174,#175);
#145=AXIS2_PLACEMENT_3D('',#240,#176,#177);
#146=AXIS2_PLACEMENT_3D('',#241,#178,#179);
#147=AXIS2_PLACEMENT_3D('',#242,#180,#181);
#148=AXIS2_PLACEMENT_3D('',#244,#182,#183);
#149=AXIS2_PLACEMENT_3D('',#245,#184,#185);
#150=AXIS2_PLACEMENT_3D('',#247,#186,#187);
#151=AXIS2_PLACEMENT_3D('',#248,#188,#189);
#152=DIRECTION('axis',(0.,0.,1.));
#153=DIRECTION('refdir',(1.,0.,0.));
#154=DIRECTION('center_axis',(-1.,1.73244772748158E-15,0.));
#155=DIRECTION('ref_axis',(1.58603289232166E-15,1.,0.));
#156=DIRECTION('center_axis',(1.,-1.73244772748158E-15,0.));
#157=DIRECTION('ref_axis',(0.,0.,-1.));
#158=DIRECTION('center_axis',(1.,-1.73244772748158E-15,0.));
#159=DIRECTION('ref_axis',(0.,0.,-1.));
#160=DIRECTION('center_axis',(1.,-1.73244772748158E-15,0.));
#161=DIRECTION('ref_axis',(0.,0.,-1.));
#162=DIRECTION('center_axis',(1.,-1.73244772748158E-15,0.));
#163=DIRECTION('ref_axis',(0.,0.,-1.));
#164=DIRECTION('center_axis',(1.,-1.73244772748158E-15,0.));
#165=DIRECTION('ref_axis',(0.,0.,-1.));
#166=DIRECTION('center_axis',(1.,-1.73244772748158E-15,0.));
#167=DIRECTION('ref_axis',(0.,0.,-1.));
#168=DIRECTION('center_axis',(1.,-1.73244772748158E-15,0.));
#169=DIRECTION('ref_axis',(1.58603289232166E-15,1.,0.));
#170=DIRECTION('center_axis',(1.,-1.73244772748158E-15,0.));
#171=DIRECTION('ref_axis',(0.,0.,-1.));
#172=DIRECTION('center_axis',(1.,-1.73244772748158E-15,0.));
#173=DIRECTION('ref_axis',(0.,0.,-1.));
#174=DIRECTION('center_axis',(1.,-1.73244772748158E-15,0.));
#175=DIRECTION('ref_axis',(0.,0.,-1.));
#176=DIRECTION('center_axis',(1.,-1.73244772748158E-15,0.));
#177=DIRECTION('ref_axis',(0.,0.,-1.));
#178=DIRECTION('center_axis',(1.,-1.73244772748158E-15,0.));
#179=DIRECTION('ref_axis',(0.,0.,-1.));
#180=DIRECTION('center_axis',(0.,0.,1.));
#181=DIRECTION('ref_axis',(1.,0.,0.));
#182=DIRECTION('center_axis',(1.,-1.73244772748158E-15,0.));
#183=DIRECTION('ref_axis',(0.,0.,-1.));
#184=DIRECTION('center_axis',(1.,-1.73244772748158E-15,0.));
#185=DIRECTION('ref_axis',(0.,0.,-1.));
#186=DIRECTION('center_axis',(1.,-1.73244772748158E-15,0.));
#187=DIRECTION('ref_axis',(0.,0.,-1.));
#188=DIRECTION('center_axis',(1.,-1.73244772748158E-15,0.));
#189=DIRECTION('ref_axis',(1.58603289232166E-15,1.,0.));
#190=CARTESIAN_POINT('',(0.,0.,0.));
#191=CARTESIAN_POINT('Origin',(-0.500000000000006,8.66223863740797E-16,
0.));
#192=CARTESIAN_POINT('',(0.,2.5,0.));
#193=CARTESIAN_POINT('Origin',(-4.44089209850063E-15,7.88860905221012E-30,
0.));
#194=CARTESIAN_POINT('',(-1.,3.5,0.));
#195=CARTESIAN_POINT('Origin',(-1.00000000000001,1.73244772748158E-15,0.));
#196=CARTESIAN_POINT('Origin',(0.,2.3,0.));
#197=CARTESIAN_POINT('',(0.,2.3,0.));
#198=CARTESIAN_POINT('Origin',(-4.44089209850063E-15,7.88860905221012E-30,
0.));
#199=CARTESIAN_POINT('Origin',(-0.300000000000005,5.1973431824448E-16,0.));
#200=CARTESIAN_POINT('',(-0.3,2.,0.));
#201=CARTESIAN_POINT('Origin',(-0.300000000000004,5.19734318244478E-16,
0.));
#202=CARTESIAN_POINT('Origin',(-7.,1.2127134092371E-14,0.));
#203=CARTESIAN_POINT('',(-13.7,2.,0.));
#204=CARTESIAN_POINT('',(-13.7,2.37345338664976E-14,1.99999999999998));
#205=CARTESIAN_POINT('Origin',(-13.7,2.37345338664976E-14,0.));
#206=CARTESIAN_POINT('Origin',(-13.7,2.37345338664976E-14,0.));
#207=CARTESIAN_POINT('Ctrl Pts',(-14.7,2.54669815939792E-14,0.999999999999979));
#208=CARTESIAN_POINT('Ctrl Pts',(-14.7,-0.999999999999953,0.999999999999979));
#209=CARTESIAN_POINT('Ctrl Pts',(-14.7,-0.999999999999953,3.94430452610506E-30));
#210=CARTESIAN_POINT('Ctrl Pts',(-14.7,-0.999999999999953,-0.999999999999979));
#211=CARTESIAN_POINT('Ctrl Pts',(-14.7,2.54669815939792E-14,-0.999999999999979));
#212=CARTESIAN_POINT('Ctrl Pts',(-14.7,1.,-0.999999999999979));
#213=CARTESIAN_POINT('Ctrl Pts',(-14.7,1.,-3.94430452610506E-30));
#214=CARTESIAN_POINT('Ctrl Pts',(-14.7,1.,0.999999999999979));
#215=CARTESIAN_POINT('Ctrl Pts',(-14.7,2.54669815939792E-14,0.999999999999979));
#216=CARTESIAN_POINT('Ctrl Pts',(-14.7,2.54669815939792E-14,1.99999999999998));
#217=CARTESIAN_POINT('Ctrl Pts',(-14.7,-1.99999999999995,1.99999999999998));
#218=CARTESIAN_POINT('Ctrl Pts',(-14.7,-1.99999999999995,3.94430452610506E-30));
#219=CARTESIAN_POINT('Ctrl Pts',(-14.7,-1.99999999999995,-1.99999999999998));
#220=CARTESIAN_POINT('Ctrl Pts',(-14.7,2.54669815939792E-14,-1.99999999999998));
#221=CARTESIAN_POINT('Ctrl Pts',(-14.7,2.,-1.99999999999998));
#222=CARTESIAN_POINT('Ctrl Pts',(-14.7,2.00000000000001,-3.94430452610506E-30));
#223=CARTESIAN_POINT('Ctrl Pts',(-14.7,2.,1.99999999999998));
#224=CARTESIAN_POINT('Ctrl Pts',(-14.7,2.54669815939792E-14,1.99999999999998));
#225=CARTESIAN_POINT('Ctrl Pts',(-13.7,2.37345338664976E-14,1.99999999999998));
#226=CARTESIAN_POINT('Ctrl Pts',(-13.7,-1.99999999999996,1.99999999999998));
#227=CARTESIAN_POINT('Ctrl Pts',(-13.7,-1.99999999999996,0.));
#228=CARTESIAN_POINT('Ctrl Pts',(-13.7,-1.99999999999996,-1.99999999999998));
#229=CARTESIAN_POINT('Ctrl Pts',(-13.7,2.37345338664976E-14,-1.99999999999998));
#230=CARTESIAN_POINT('Ctrl Pts',(-13.7,2.,-1.99999999999998));
#231=CARTESIAN_POINT('Ctrl Pts',(-13.7,2.,0.));
#232=CARTESIAN_POINT('Ctrl Pts',(-13.7,2.,1.99999999999998));
#233=CARTESIAN_POINT('Ctrl Pts',(-13.7,2.37345338664976E-14,1.99999999999998));
#234=CARTESIAN_POINT('',(-14.7,2.54669815939792E-14,0.999999999999979));
#235=CARTESIAN_POINT('Ctrl Pts',(-13.7,2.37345338664976E-14,1.99999999999998));
#236=CARTESIAN_POINT('Ctrl Pts',(-14.7,2.54669815939792E-14,1.99999999999998));
#237=CARTESIAN_POINT('Ctrl Pts',(-14.7,2.54669815939792E-14,0.999999999999979));
#238=CARTESIAN_POINT('',(-14.7,1.,0.));
#239=CARTESIAN_POINT('Origin',(-14.7,2.54669815939792E-14,0.));
#240=CARTESIAN_POINT('Origin',(-14.7,2.54669815939792E-14,0.));
#241=CARTESIAN_POINT('Origin',(-14.7,2.55351295663786E-14,0.));
#242=CARTESIAN_POINT('Origin',(-13.9708333333333,-3.88578058618805E-15,
0.));
#243=CARTESIAN_POINT('',(-15.,6.65,0.));
#244=CARTESIAN_POINT('Origin',(-15.,2.59867159122237E-14,0.));
#245=CARTESIAN_POINT('Origin',(-15.,3.5,0.));
#246=CARTESIAN_POINT('',(-15.,3.5,0.));
#247=CARTESIAN_POINT('Origin',(-15.,2.59867159122236E-14,0.));
#248=CARTESIAN_POINT('Origin',(-8.00000000000001,1.38595818198526E-14,0.));
#249=UNCERTAINTY_MEASURE_WITH_UNIT(LENGTH_MEASURE(0.01),#253,
'DISTANCE_ACCURACY_VALUE',
'Maximum model space distance between geometric entities at asserted c
onnectivities');
#250=UNCERTAINTY_MEASURE_WITH_UNIT(LENGTH_MEASURE(1.E-6),#253,
'DISTANCE_ACCURACY_VALUE',
'Maximum model space distance between geometric entities at asserted c
onnectivities');
#251=(
GEOMETRIC_REPRESENTATION_CONTEXT(3)
GLOBAL_UNCERTAINTY_ASSIGNED_CONTEXT((#249))
GLOBAL_UNIT_ASSIGNED_CONTEXT((#253,#256,#254))
REPRESENTATION_CONTEXT('','3D')
);
#252=(
GEOMETRIC_REPRESENTATION_CONTEXT(3)
GLOBAL_UNCERTAINTY_ASSIGNED_CONTEXT((#250))
GLOBAL_UNIT_ASSIGNED_CONTEXT((#253,#256,#254))
REPRESENTATION_CONTEXT('','3D')
);
#253=(
LENGTH_UNIT()
NAMED_UNIT(*)
SI_UNIT(.MILLI.,.METRE.)
);
#254=(
NAMED_UNIT(*)
SI_UNIT($,.STERADIAN.)
SOLID_ANGLE_UNIT()
);
#255=DIMENSIONAL_EXPONENTS(0.,0.,0.,0.,0.,0.,0.);
#256=(
CONVERSION_BASED_UNIT('degree',#258)
NAMED_UNIT(#255)
PLANE_ANGLE_UNIT()
);
#257=(
NAMED_UNIT(*)
PLANE_ANGLE_UNIT()
SI_UNIT($,.RADIAN.)
);
#258=PLANE_ANGLE_MEASURE_WITH_UNIT(PLANE_ANGLE_MEASURE(0.01745329252),#257);
#259=SHAPE_DEFINITION_REPRESENTATION(#260,#261);
#260=PRODUCT_DEFINITION_SHAPE('',$,#263);
#261=SHAPE_REPRESENTATION('',(#133),#251);
#262=PRODUCT_DEFINITION_CONTEXT('part definition',#267,'design');
#263=PRODUCT_DEFINITION('82007517X3DS',
'Blindstopfen-01-BT-0002-82007517X3DS',#264,#262);
#264=PRODUCT_DEFINITION_FORMATION('',$,#269);
#265=PRODUCT_RELATED_PRODUCT_CATEGORY(
'Blindstopfen-01-BT-0002-82007517X3DS',
'Blindstopfen-01-BT-0002-82007517X3DS',(#269));
#266=APPLICATION_PROTOCOL_DEFINITION('international standard',
'automotive_design',2009,#267);
#267=APPLICATION_CONTEXT(
'Core Data for Automotive Mechanical Design Process');
#268=PRODUCT_CONTEXT('part definition',#267,'mechanical');
#269=PRODUCT('82007517X3DS','Blindstopfen-01-BT-0002-82007517X3DS',
'Blindstopfen X3 4-10',(#268));
#270=PRESENTATION_STYLE_ASSIGNMENT((#272));
#271=PRESENTATION_STYLE_ASSIGNMENT((#273));
#272=SURFACE_STYLE_USAGE(.BOTH.,#274);
#273=SURFACE_STYLE_USAGE(.BOTH.,#275);
#274=SURFACE_SIDE_STYLE('',(#276));
#275=SURFACE_SIDE_STYLE('',(#277));
#276=SURFACE_STYLE_FILL_AREA(#278);
#277=SURFACE_STYLE_FILL_AREA(#279);
#278=FILL_AREA_STYLE('',(#280));
#279=FILL_AREA_STYLE('',(#281));
#280=FILL_AREA_STYLE_COLOUR('',#282);
#281=FILL_AREA_STYLE_COLOUR('',#283);
#282=COLOUR_RGB('',0.945098039215686,0.949019607843137,0.972549019607843);
#283=COLOUR_RGB('',0.0196078431372549,0.0196078431372549,0.0196078431372549);
ENDSEC;
END-ISO-10303-21;
