ISO-10303-21;
HEADER;
/* Generated by software containing ST-Developer
 * from STEP Tools, Inc. (www.steptools.com) 
 */

FILE_DESCRIPTION(
/* description */ ('Blindstopfen X3 4-13'),
/* implementation_level */ '2;1');

FILE_NAME(
/* name */ 
'Y:\\Produkte\\Produktdaten_Produktdarstellungen\\Produktdarstellungen
_Bilder-3DModelle-etc\\3D-Modelle\\Kundenversionen\\Bimed\\RST-SL\\Bli
ndstopfen-X3\\Doppeldichtung\\82007519X3DS-RST.stp',
/* time_stamp */ '2021-03-22T13:10:07+01:00',
/* author */ ('sl'),
/* organization */ (''),
/* preprocessor_version */ 'ST-DEVELOPER v16.5',
/* originating_system */ 'Autodesk Inventor 2017',
/* authorisation */ '');

FILE_SCHEMA (('AUTOMOTIVE_DESIGN { 1 0 10303 214 3 1 1 }'));
ENDSEC;

DATA;
#10=MECHANICAL_DESIGN_GEOMETRIC_PRESENTATION_REPRESENTATION('',(#95,#97,
#102,#103,#99,#101,#98,#96,#100),#225);
#11=SHAPE_REPRESENTATION_RELATIONSHIP('SRR','None',#234,#12);
#12=ADVANCED_BREP_SHAPE_REPRESENTATION('',(#13),#224);
#13=MANIFOLD_SOLID_BREP('Volumenk\X\F6rper1',#112);
#14=(
BOUNDED_CURVE()
B_SPLINE_CURVE(2,(#215,#216,#217),.UNSPECIFIED.,.F.,.F.)
B_SPLINE_CURVE_WITH_KNOTS((3,3),(0.0506537472962495,1.57207895392176),
 .UNSPECIFIED.)
CURVE()
GEOMETRIC_REPRESENTATION_ITEM()
RATIONAL_B_SPLINE_CURVE((1.,0.724344899041323,1.))
REPRESENTATION_ITEM('')
);
#15=(
BOUNDED_SURFACE()
B_SPLINE_SURFACE(2,2,((#183,#184,#185,#186,#187,#188,#189,#190,#191),(#192,
#193,#194,#195,#196,#197,#198,#199,#200),(#201,#202,#203,#204,#205,#206,
#207,#208,#209)),.UNSPECIFIED.,.F.,.T.,.F.)
B_SPLINE_SURFACE_WITH_KNOTS((3,3),(3,2,2,2,3),(-1.57207895392176,-0.0506537472962495),
(-3.14159265358979,-1.5707963267949,0.,1.5707963267949,3.14159265358979),
 .UNSPECIFIED.)
GEOMETRIC_REPRESENTATION_ITEM()
RATIONAL_B_SPLINE_SURFACE(((1.,0.707106781186548,1.,0.707106781186548,1.,
0.707106781186548,1.,0.707106781186548,1.),(0.724344899041323,0.512189190030005,
0.724344899041323,0.512189190030005,0.724344899041323,0.512189190030005,
0.724344899041323,0.512189190030005,0.724344899041323),(1.,0.707106781186548,
1.,0.707106781186548,1.,0.707106781186548,1.,0.707106781186548,1.)))
REPRESENTATION_ITEM('')
SURFACE()
);
#16=SPHERICAL_SURFACE('',#129,2.5);
#17=CYLINDRICAL_SURFACE('',#127,2.5);
#18=CYLINDRICAL_SURFACE('',#134,3.5);
#19=TOROIDAL_SURFACE('',#125,2.6,0.1);
#20=PLANE('',#123);
#21=PLANE('',#132);
#22=FACE_BOUND('',#37,.T.);
#23=FACE_BOUND('',#39,.T.);
#24=FACE_BOUND('',#41,.T.);
#25=FACE_BOUND('',#43,.T.);
#26=FACE_BOUND('',#47,.T.);
#27=FACE_BOUND('',#49,.T.);
#28=FACE_OUTER_BOUND('',#36,.T.);
#29=FACE_OUTER_BOUND('',#38,.T.);
#30=FACE_OUTER_BOUND('',#40,.T.);
#31=FACE_OUTER_BOUND('',#42,.T.);
#32=FACE_OUTER_BOUND('',#44,.T.);
#33=FACE_OUTER_BOUND('',#45,.T.);
#34=FACE_OUTER_BOUND('',#46,.T.);
#35=FACE_OUTER_BOUND('',#48,.T.);
#36=EDGE_LOOP('',(#76));
#37=EDGE_LOOP('',(#77));
#38=EDGE_LOOP('',(#78));
#39=EDGE_LOOP('',(#79));
#40=EDGE_LOOP('',(#80));
#41=EDGE_LOOP('',(#81));
#42=EDGE_LOOP('',(#82));
#43=EDGE_LOOP('',(#83));
#44=EDGE_LOOP('',(#84));
#45=EDGE_LOOP('',(#85,#86,#87,#88));
#46=EDGE_LOOP('',(#89,#90));
#47=EDGE_LOOP('',(#91));
#48=EDGE_LOOP('',(#92));
#49=EDGE_LOOP('',(#93));
#50=CIRCLE('',#121,3.4);
#51=CIRCLE('',#122,3.5);
#52=CIRCLE('',#124,2.6);
#53=CIRCLE('',#126,2.5);
#54=CIRCLE('',#128,2.5);
#55=CIRCLE('',#130,7.89999999999999);
#56=CIRCLE('',#131,7.89999999999999);
#57=CIRCLE('',#133,3.5);
#58=VERTEX_POINT('',#169);
#59=VERTEX_POINT('',#171);
#60=VERTEX_POINT('',#174);
#61=VERTEX_POINT('',#177);
#62=VERTEX_POINT('',#180);
#63=VERTEX_POINT('',#210);
#64=VERTEX_POINT('',#211);
#65=VERTEX_POINT('',#214);
#66=VERTEX_POINT('',#219);
#67=EDGE_CURVE('',#58,#58,#50,.T.);
#68=EDGE_CURVE('',#59,#59,#51,.T.);
#69=EDGE_CURVE('',#60,#60,#52,.T.);
#70=EDGE_CURVE('',#61,#61,#53,.T.);
#71=EDGE_CURVE('',#62,#62,#54,.T.);
#72=EDGE_CURVE('',#63,#64,#55,.T.);
#73=EDGE_CURVE('',#64,#63,#56,.T.);
#74=EDGE_CURVE('',#64,#65,#14,.T.);
#75=EDGE_CURVE('',#66,#66,#57,.T.);
#76=ORIENTED_EDGE('',*,*,#67,.F.);
#77=ORIENTED_EDGE('',*,*,#68,.T.);
#78=ORIENTED_EDGE('',*,*,#67,.T.);
#79=ORIENTED_EDGE('',*,*,#69,.F.);
#80=ORIENTED_EDGE('',*,*,#70,.F.);
#81=ORIENTED_EDGE('',*,*,#69,.T.);
#82=ORIENTED_EDGE('',*,*,#71,.F.);
#83=ORIENTED_EDGE('',*,*,#70,.T.);
#84=ORIENTED_EDGE('',*,*,#71,.T.);
#85=ORIENTED_EDGE('',*,*,#72,.F.);
#86=ORIENTED_EDGE('',*,*,#73,.F.);
#87=ORIENTED_EDGE('',*,*,#74,.T.);
#88=ORIENTED_EDGE('',*,*,#74,.F.);
#89=ORIENTED_EDGE('',*,*,#72,.T.);
#90=ORIENTED_EDGE('',*,*,#73,.T.);
#91=ORIENTED_EDGE('',*,*,#75,.F.);
#92=ORIENTED_EDGE('',*,*,#68,.F.);
#93=ORIENTED_EDGE('',*,*,#75,.T.);
#94=CONICAL_SURFACE('',#120,3.45,45.);
#95=STYLED_ITEM('',(#244),#104);
#96=STYLED_ITEM('',(#244),#105);
#97=STYLED_ITEM('',(#244),#106);
#98=STYLED_ITEM('',(#244),#107);
#99=STYLED_ITEM('',(#244),#108);
#100=STYLED_ITEM('',(#244),#109);
#101=STYLED_ITEM('',(#244),#110);
#102=STYLED_ITEM('',(#244),#111);
#103=STYLED_ITEM('',(#243),#13);
#104=ADVANCED_FACE('',(#28,#22),#94,.T.);
#105=ADVANCED_FACE('',(#29,#23),#20,.T.);
#106=ADVANCED_FACE('',(#30,#24),#19,.T.);
#107=ADVANCED_FACE('',(#31,#25),#17,.F.);
#108=ADVANCED_FACE('',(#32),#16,.F.);
#109=ADVANCED_FACE('',(#33),#15,.F.);
#110=ADVANCED_FACE('',(#34,#26),#21,.T.);
#111=ADVANCED_FACE('',(#35,#27),#18,.T.);
#112=CLOSED_SHELL('',(#104,#105,#106,#107,#108,#109,#110,#111));
#113=DATE_TIME_ROLE('creation_date');
#114=APPLIED_DATE_AND_TIME_ASSIGNMENT(#115,#113,(#236));
#115=DATE_AND_TIME(#116,#117);
#116=CALENDAR_DATE(2021,21,3);
#117=LOCAL_TIME(23,0,0.,#118);
#118=COORDINATED_UNIVERSAL_TIME_OFFSET(0,0,.BEHIND.);
#119=AXIS2_PLACEMENT_3D('placement',#167,#135,#136);
#120=AXIS2_PLACEMENT_3D('',#168,#137,#138);
#121=AXIS2_PLACEMENT_3D('',#170,#139,#140);
#122=AXIS2_PLACEMENT_3D('',#172,#141,#142);
#123=AXIS2_PLACEMENT_3D('',#173,#143,#144);
#124=AXIS2_PLACEMENT_3D('',#175,#145,#146);
#125=AXIS2_PLACEMENT_3D('',#176,#147,#148);
#126=AXIS2_PLACEMENT_3D('',#178,#149,#150);
#127=AXIS2_PLACEMENT_3D('',#179,#151,#152);
#128=AXIS2_PLACEMENT_3D('',#181,#153,#154);
#129=AXIS2_PLACEMENT_3D('',#182,#155,#156);
#130=AXIS2_PLACEMENT_3D('',#212,#157,#158);
#131=AXIS2_PLACEMENT_3D('',#213,#159,#160);
#132=AXIS2_PLACEMENT_3D('',#218,#161,#162);
#133=AXIS2_PLACEMENT_3D('',#220,#163,#164);
#134=AXIS2_PLACEMENT_3D('',#221,#165,#166);
#135=DIRECTION('axis',(0.,0.,1.));
#136=DIRECTION('refdir',(1.,0.,0.));
#137=DIRECTION('center_axis',(-1.,2.4414323156085E-16,0.));
#138=DIRECTION('ref_axis',(3.1720657846433E-16,1.,0.));
#139=DIRECTION('center_axis',(1.,-2.4414323156085E-16,0.));
#140=DIRECTION('ref_axis',(0.,0.,-1.));
#141=DIRECTION('center_axis',(1.,-2.4414323156085E-16,0.));
#142=DIRECTION('ref_axis',(0.,0.,-1.));
#143=DIRECTION('center_axis',(1.,-2.4414323156085E-16,0.));
#144=DIRECTION('ref_axis',(0.,0.,-1.));
#145=DIRECTION('center_axis',(1.,-2.4414323156085E-16,0.));
#146=DIRECTION('ref_axis',(0.,0.,-1.));
#147=DIRECTION('center_axis',(1.,-2.4414323156085E-16,0.));
#148=DIRECTION('ref_axis',(0.,0.,-1.));
#149=DIRECTION('center_axis',(1.,-2.4414323156085E-16,0.));
#150=DIRECTION('ref_axis',(0.,0.,-1.));
#151=DIRECTION('center_axis',(1.,-2.4414323156085E-16,0.));
#152=DIRECTION('ref_axis',(3.1720657846433E-16,1.,0.));
#153=DIRECTION('center_axis',(1.,-2.4414323156085E-16,0.));
#154=DIRECTION('ref_axis',(0.,0.,-1.));
#155=DIRECTION('center_axis',(1.,-6.12323399573677E-17,0.));
#156=DIRECTION('ref_axis',(0.,-1.,0.));
#157=DIRECTION('center_axis',(1.,-2.4414323156085E-16,0.));
#158=DIRECTION('ref_axis',(0.,0.,-1.));
#159=DIRECTION('center_axis',(1.,-2.4414323156085E-16,0.));
#160=DIRECTION('ref_axis',(0.,0.,-1.));
#161=DIRECTION('center_axis',(1.,-2.4414323156085E-16,0.));
#162=DIRECTION('ref_axis',(0.,0.,-1.));
#163=DIRECTION('center_axis',(1.,-2.4414323156085E-16,0.));
#164=DIRECTION('ref_axis',(0.,0.,-1.));
#165=DIRECTION('center_axis',(1.,-2.4414323156085E-16,0.));
#166=DIRECTION('ref_axis',(3.1720657846433E-16,1.,0.));
#167=CARTESIAN_POINT('',(0.,0.,0.));
#168=CARTESIAN_POINT('Origin',(-0.0500000000000012,1.22071615780427E-17,
0.));
#169=CARTESIAN_POINT('',(0.,3.4,0.));
#170=CARTESIAN_POINT('Origin',(-1.11022302462516E-15,2.46519032881566E-31,
0.));
#171=CARTESIAN_POINT('',(-0.1,3.5,0.));
#172=CARTESIAN_POINT('Origin',(-0.100000000000001,2.44143231560853E-17,
0.));
#173=CARTESIAN_POINT('Origin',(0.,2.6,0.));
#174=CARTESIAN_POINT('',(0.,2.6,0.));
#175=CARTESIAN_POINT('Origin',(-1.11022302462516E-15,2.46519032881566E-31,
0.));
#176=CARTESIAN_POINT('Origin',(-0.100000000000001,2.44143231560853E-17,
0.));
#177=CARTESIAN_POINT('',(-0.1,2.5,0.));
#178=CARTESIAN_POINT('Origin',(-0.100000000000001,2.44143231560853E-17,
0.));
#179=CARTESIAN_POINT('Origin',(-6.05,1.47706655094314E-15,0.));
#180=CARTESIAN_POINT('',(-12.,2.5,0.));
#181=CARTESIAN_POINT('Origin',(-12.,2.9297187787302E-15,0.));
#182=CARTESIAN_POINT('Origin',(-12.,2.22044604925031E-15,0.));
#183=CARTESIAN_POINT('Ctrl Pts',(-21.5,5.24907947855827E-15,-3.81639164714898E-16));
#184=CARTESIAN_POINT('Ctrl Pts',(-21.5,5.63071864327316E-15,-3.81639164714898E-16));
#185=CARTESIAN_POINT('Ctrl Pts',(-21.5,5.63071864327316E-15,0.));
#186=CARTESIAN_POINT('Ctrl Pts',(-21.5,5.63071864327316E-15,3.81639164714898E-16));
#187=CARTESIAN_POINT('Ctrl Pts',(-21.5,5.24907947855827E-15,3.81639164714898E-16));
#188=CARTESIAN_POINT('Ctrl Pts',(-21.5,4.86744031384337E-15,3.81639164714898E-16));
#189=CARTESIAN_POINT('Ctrl Pts',(-21.5,4.86744031384337E-15,0.));
#190=CARTESIAN_POINT('Ctrl Pts',(-21.5,4.86744031384337E-15,-3.81639164714898E-16));
#191=CARTESIAN_POINT('Ctrl Pts',(-21.5,5.24907947855827E-15,-3.81639164714898E-16));
#192=CARTESIAN_POINT('Ctrl Pts',(-21.509644441251,5.25143410361189E-15,
7.5192826973902));
#193=CARTESIAN_POINT('Ctrl Pts',(-21.509644441251,-7.5192826973902,7.5192826973902));
#194=CARTESIAN_POINT('Ctrl Pts',(-21.509644441251,-7.5192826973902,9.86076131526265E-31));
#195=CARTESIAN_POINT('Ctrl Pts',(-21.509644441251,-7.5192826973902,-7.5192826973902));
#196=CARTESIAN_POINT('Ctrl Pts',(-21.509644441251,5.25143410361189E-15,
-7.5192826973902));
#197=CARTESIAN_POINT('Ctrl Pts',(-21.509644441251,7.51928269739021,-7.5192826973902));
#198=CARTESIAN_POINT('Ctrl Pts',(-21.509644441251,7.51928269739021,-9.86076131526265E-31));
#199=CARTESIAN_POINT('Ctrl Pts',(-21.509644441251,7.51928269739021,7.5192826973902));
#200=CARTESIAN_POINT('Ctrl Pts',(-21.509644441251,5.25143410361189E-15,
7.5192826973902));
#201=CARTESIAN_POINT('Ctrl Pts',(-14.,3.41800524185189E-15,7.89999999999999));
#202=CARTESIAN_POINT('Ctrl Pts',(-14.,-7.89999999999999,7.89999999999999));
#203=CARTESIAN_POINT('Ctrl Pts',(-14.,-7.89999999999999,0.));
#204=CARTESIAN_POINT('Ctrl Pts',(-14.,-7.89999999999999,-7.89999999999999));
#205=CARTESIAN_POINT('Ctrl Pts',(-14.,3.41800524185189E-15,-7.89999999999999));
#206=CARTESIAN_POINT('Ctrl Pts',(-14.,7.9,-7.89999999999999));
#207=CARTESIAN_POINT('Ctrl Pts',(-14.,7.9,0.));
#208=CARTESIAN_POINT('Ctrl Pts',(-14.,7.9,7.89999999999999));
#209=CARTESIAN_POINT('Ctrl Pts',(-14.,3.41800524185189E-15,7.89999999999999));
#210=CARTESIAN_POINT('',(-14.,7.9,0.));
#211=CARTESIAN_POINT('',(-14.,3.41800524185189E-15,7.89999999999999));
#212=CARTESIAN_POINT('Origin',(-14.,3.41800524185189E-15,0.));
#213=CARTESIAN_POINT('Origin',(-14.,3.41800524185189E-15,0.));
#214=CARTESIAN_POINT('',(-21.5,-5.62369346934073E-15,0.));
#215=CARTESIAN_POINT('Ctrl Pts',(-14.,3.41800524185189E-15,7.89999999999999));
#216=CARTESIAN_POINT('Ctrl Pts',(-21.509644441251,5.25143410361189E-15,
7.5192826973902));
#217=CARTESIAN_POINT('Ctrl Pts',(-21.5,5.24907947855827E-15,-3.81639164714898E-16));
#218=CARTESIAN_POINT('Origin',(-14.,3.5,0.));
#219=CARTESIAN_POINT('',(-14.,3.5,0.));
#220=CARTESIAN_POINT('Origin',(-14.,3.41800524185189E-15,0.));
#221=CARTESIAN_POINT('Origin',(-7.05,1.72120978250399E-15,0.));
#222=UNCERTAINTY_MEASURE_WITH_UNIT(LENGTH_MEASURE(0.01),#226,
'DISTANCE_ACCURACY_VALUE',
'Maximum model space distance between geometric entities at asserted c
onnectivities');
#223=UNCERTAINTY_MEASURE_WITH_UNIT(LENGTH_MEASURE(1.E-6),#226,
'DISTANCE_ACCURACY_VALUE',
'Maximum model space distance between geometric entities at asserted c
onnectivities');
#224=(
GEOMETRIC_REPRESENTATION_CONTEXT(3)
GLOBAL_UNCERTAINTY_ASSIGNED_CONTEXT((#222))
GLOBAL_UNIT_ASSIGNED_CONTEXT((#226,#229,#227))
REPRESENTATION_CONTEXT('','3D')
);
#225=(
GEOMETRIC_REPRESENTATION_CONTEXT(3)
GLOBAL_UNCERTAINTY_ASSIGNED_CONTEXT((#223))
GLOBAL_UNIT_ASSIGNED_CONTEXT((#226,#229,#227))
REPRESENTATION_CONTEXT('','3D')
);
#226=(
LENGTH_UNIT()
NAMED_UNIT(*)
SI_UNIT(.MILLI.,.METRE.)
);
#227=(
NAMED_UNIT(*)
SI_UNIT($,.STERADIAN.)
SOLID_ANGLE_UNIT()
);
#228=DIMENSIONAL_EXPONENTS(0.,0.,0.,0.,0.,0.,0.);
#229=(
CONVERSION_BASED_UNIT('degree',#231)
NAMED_UNIT(#228)
PLANE_ANGLE_UNIT()
);
#230=(
NAMED_UNIT(*)
PLANE_ANGLE_UNIT()
SI_UNIT($,.RADIAN.)
);
#231=PLANE_ANGLE_MEASURE_WITH_UNIT(PLANE_ANGLE_MEASURE(0.01745329252),#230);
#232=SHAPE_DEFINITION_REPRESENTATION(#233,#234);
#233=PRODUCT_DEFINITION_SHAPE('',$,#236);
#234=SHAPE_REPRESENTATION('',(#119),#224);
#235=PRODUCT_DEFINITION_CONTEXT('part definition',#240,'design');
#236=PRODUCT_DEFINITION('82007519X3DS',
'Blindstopfen-01-BT-0004-82007519X3DS',#237,#235);
#237=PRODUCT_DEFINITION_FORMATION('',$,#242);
#238=PRODUCT_RELATED_PRODUCT_CATEGORY(
'Blindstopfen-01-BT-0004-82007519X3DS',
'Blindstopfen-01-BT-0004-82007519X3DS',(#242));
#239=APPLICATION_PROTOCOL_DEFINITION('international standard',
'automotive_design',2009,#240);
#240=APPLICATION_CONTEXT(
'Core Data for Automotive Mechanical Design Process');
#241=PRODUCT_CONTEXT('part definition',#240,'mechanical');
#242=PRODUCT('82007519X3DS','Blindstopfen-01-BT-0004-82007519X3DS',
'Blindstopfen X3 4-13',(#241));
#243=PRESENTATION_STYLE_ASSIGNMENT((#245));
#244=PRESENTATION_STYLE_ASSIGNMENT((#246));
#245=SURFACE_STYLE_USAGE(.BOTH.,#247);
#246=SURFACE_STYLE_USAGE(.BOTH.,#248);
#247=SURFACE_SIDE_STYLE('',(#249));
#248=SURFACE_SIDE_STYLE('',(#250));
#249=SURFACE_STYLE_FILL_AREA(#251);
#250=SURFACE_STYLE_FILL_AREA(#252);
#251=FILL_AREA_STYLE('',(#253));
#252=FILL_AREA_STYLE('',(#254));
#253=FILL_AREA_STYLE_COLOUR('',#255);
#254=FILL_AREA_STYLE_COLOUR('',#256);
#255=COLOUR_RGB('',0.945098039215686,0.949019607843137,0.972549019607843);
#256=COLOUR_RGB('',0.0196078431372549,0.0196078431372549,0.0196078431372549);
ENDSEC;
END-ISO-10303-21;
