ISO-10303-21;
HEADER;
/* Generated by software containing ST-Developer
 * from STEP Tools, Inc. (www.steptools.com) 
 */

FILE_DESCRIPTION(
/* description */ ('Blindstopfen M32 (9-16/11-16)'),
/* implementation_level */ '2;1');

FILE_NAME(
/* name */ 
'Y:\\Produkte\\Produktdaten_Produktdarstellungen\\Produktdarstellungen
_Bilder-3DModelle-etc\\3D-Modelle\\Kundenversionen\\Bimed\\RST-SL\\Bli
ndstopfen-X3\\Doppeldichtung\\82007532X3DS-RST.stp',
/* time_stamp */ '2021-03-22T13:29:07+01:00',
/* author */ ('sl'),
/* organization */ (''),
/* preprocessor_version */ 'ST-DEVELOPER v16.5',
/* originating_system */ 'Autodesk Inventor 2017',
/* authorisation */ '');

FILE_SCHEMA (('AUTOMOTIVE_DESIGN { 1 0 10303 214 3 1 1 }'));
ENDSEC;

DATA;
#10=MECHANICAL_DESIGN_GEOMETRIC_PRESENTATION_REPRESENTATION('',(#99,#95,
#96,#97,#98,#101,#103,#104,#102,#100),#204);
#11=SHAPE_REPRESENTATION_RELATIONSHIP('SRR','None',#213,#12);
#12=ADVANCED_BREP_SHAPE_REPRESENTATION('',(#13),#203);
#13=MANIFOLD_SOLID_BREP('Volumenk\X\F6rper1',#114);
#14=SPHERICAL_SURFACE('',#134,12.5);
#15=CYLINDRICAL_SURFACE('',#129,6.15);
#16=CYLINDRICAL_SURFACE('',#138,8.05);
#17=TOROIDAL_SURFACE('',#127,6.2,0.0500000000000008);
#18=TOROIDAL_SURFACE('',#131,3.15,3.);
#19=PLANE('',#125);
#20=PLANE('',#133);
#21=PLANE('',#136);
#22=FACE_BOUND('',#39,.T.);
#23=FACE_BOUND('',#41,.T.);
#24=FACE_BOUND('',#43,.T.);
#25=FACE_BOUND('',#45,.T.);
#26=FACE_BOUND('',#47,.T.);
#27=FACE_BOUND('',#51,.T.);
#28=FACE_BOUND('',#53,.T.);
#29=FACE_OUTER_BOUND('',#38,.T.);
#30=FACE_OUTER_BOUND('',#40,.T.);
#31=FACE_OUTER_BOUND('',#42,.T.);
#32=FACE_OUTER_BOUND('',#44,.T.);
#33=FACE_OUTER_BOUND('',#46,.T.);
#34=FACE_OUTER_BOUND('',#48,.T.);
#35=FACE_OUTER_BOUND('',#49,.T.);
#36=FACE_OUTER_BOUND('',#50,.T.);
#37=FACE_OUTER_BOUND('',#52,.T.);
#38=EDGE_LOOP('',(#78));
#39=EDGE_LOOP('',(#79));
#40=EDGE_LOOP('',(#80));
#41=EDGE_LOOP('',(#81));
#42=EDGE_LOOP('',(#82));
#43=EDGE_LOOP('',(#83));
#44=EDGE_LOOP('',(#84));
#45=EDGE_LOOP('',(#85));
#46=EDGE_LOOP('',(#86));
#47=EDGE_LOOP('',(#87));
#48=EDGE_LOOP('',(#88));
#49=EDGE_LOOP('',(#89));
#50=EDGE_LOOP('',(#90));
#51=EDGE_LOOP('',(#91));
#52=EDGE_LOOP('',(#92));
#53=EDGE_LOOP('',(#93));
#54=CIRCLE('',#123,7.05);
#55=CIRCLE('',#124,8.05);
#56=CIRCLE('',#126,6.2);
#57=CIRCLE('',#128,6.15);
#58=CIRCLE('',#130,6.15);
#59=CIRCLE('',#132,3.15);
#60=CIRCLE('',#135,12.);
#61=CIRCLE('',#137,8.05);
#62=VERTEX_POINT('',#177);
#63=VERTEX_POINT('',#179);
#64=VERTEX_POINT('',#182);
#65=VERTEX_POINT('',#185);
#66=VERTEX_POINT('',#188);
#67=VERTEX_POINT('',#191);
#68=VERTEX_POINT('',#195);
#69=VERTEX_POINT('',#198);
#70=EDGE_CURVE('',#62,#62,#54,.T.);
#71=EDGE_CURVE('',#63,#63,#55,.T.);
#72=EDGE_CURVE('',#64,#64,#56,.T.);
#73=EDGE_CURVE('',#65,#65,#57,.T.);
#74=EDGE_CURVE('',#66,#66,#58,.T.);
#75=EDGE_CURVE('',#67,#67,#59,.T.);
#76=EDGE_CURVE('',#68,#68,#60,.T.);
#77=EDGE_CURVE('',#69,#69,#61,.T.);
#78=ORIENTED_EDGE('',*,*,#70,.F.);
#79=ORIENTED_EDGE('',*,*,#71,.T.);
#80=ORIENTED_EDGE('',*,*,#70,.T.);
#81=ORIENTED_EDGE('',*,*,#72,.F.);
#82=ORIENTED_EDGE('',*,*,#73,.F.);
#83=ORIENTED_EDGE('',*,*,#72,.T.);
#84=ORIENTED_EDGE('',*,*,#74,.F.);
#85=ORIENTED_EDGE('',*,*,#73,.T.);
#86=ORIENTED_EDGE('',*,*,#75,.F.);
#87=ORIENTED_EDGE('',*,*,#74,.T.);
#88=ORIENTED_EDGE('',*,*,#75,.T.);
#89=ORIENTED_EDGE('',*,*,#76,.F.);
#90=ORIENTED_EDGE('',*,*,#76,.T.);
#91=ORIENTED_EDGE('',*,*,#77,.F.);
#92=ORIENTED_EDGE('',*,*,#71,.F.);
#93=ORIENTED_EDGE('',*,*,#77,.T.);
#94=CONICAL_SURFACE('',#122,7.55,45.);
#95=STYLED_ITEM('',(#223),#105);
#96=STYLED_ITEM('',(#223),#106);
#97=STYLED_ITEM('',(#223),#107);
#98=STYLED_ITEM('',(#223),#108);
#99=STYLED_ITEM('',(#223),#109);
#100=STYLED_ITEM('',(#223),#110);
#101=STYLED_ITEM('',(#223),#111);
#102=STYLED_ITEM('',(#223),#112);
#103=STYLED_ITEM('',(#223),#113);
#104=STYLED_ITEM('',(#222),#13);
#105=ADVANCED_FACE('',(#29,#22),#94,.T.);
#106=ADVANCED_FACE('',(#30,#23),#19,.T.);
#107=ADVANCED_FACE('',(#31,#24),#17,.T.);
#108=ADVANCED_FACE('',(#32,#25),#15,.F.);
#109=ADVANCED_FACE('',(#33,#26),#18,.F.);
#110=ADVANCED_FACE('',(#34),#20,.T.);
#111=ADVANCED_FACE('',(#35),#14,.T.);
#112=ADVANCED_FACE('',(#36,#27),#21,.T.);
#113=ADVANCED_FACE('',(#37,#28),#16,.T.);
#114=CLOSED_SHELL('',(#105,#106,#107,#108,#109,#110,#111,#112,#113));
#115=DATE_TIME_ROLE('creation_date');
#116=APPLIED_DATE_AND_TIME_ASSIGNMENT(#117,#115,(#215));
#117=DATE_AND_TIME(#118,#119);
#118=CALENDAR_DATE(2020,26,10);
#119=LOCAL_TIME(23,0,0.,#120);
#120=COORDINATED_UNIVERSAL_TIME_OFFSET(0,0,.BEHIND.);
#121=AXIS2_PLACEMENT_3D('placement',#175,#139,#140);
#122=AXIS2_PLACEMENT_3D('',#176,#141,#142);
#123=AXIS2_PLACEMENT_3D('',#178,#143,#144);
#124=AXIS2_PLACEMENT_3D('',#180,#145,#146);
#125=AXIS2_PLACEMENT_3D('',#181,#147,#148);
#126=AXIS2_PLACEMENT_3D('',#183,#149,#150);
#127=AXIS2_PLACEMENT_3D('',#184,#151,#152);
#128=AXIS2_PLACEMENT_3D('',#186,#153,#154);
#129=AXIS2_PLACEMENT_3D('',#187,#155,#156);
#130=AXIS2_PLACEMENT_3D('',#189,#157,#158);
#131=AXIS2_PLACEMENT_3D('',#190,#159,#160);
#132=AXIS2_PLACEMENT_3D('',#192,#161,#162);
#133=AXIS2_PLACEMENT_3D('',#193,#163,#164);
#134=AXIS2_PLACEMENT_3D('',#194,#165,#166);
#135=AXIS2_PLACEMENT_3D('',#196,#167,#168);
#136=AXIS2_PLACEMENT_3D('',#197,#169,#170);
#137=AXIS2_PLACEMENT_3D('',#199,#171,#172);
#138=AXIS2_PLACEMENT_3D('',#200,#173,#174);
#139=DIRECTION('axis',(0.,0.,1.));
#140=DIRECTION('refdir',(1.,0.,0.));
#141=DIRECTION('center_axis',(-1.,2.28392055331117E-16,0.));
#142=DIRECTION('ref_axis',(2.75831807360287E-16,1.,0.));
#143=DIRECTION('center_axis',(1.,-2.28392055331117E-16,0.));
#144=DIRECTION('ref_axis',(0.,0.,-1.));
#145=DIRECTION('center_axis',(1.,-2.28392055331117E-16,0.));
#146=DIRECTION('ref_axis',(0.,0.,-1.));
#147=DIRECTION('center_axis',(1.,-2.28392055331117E-16,0.));
#148=DIRECTION('ref_axis',(0.,0.,-1.));
#149=DIRECTION('center_axis',(1.,-2.28392055331117E-16,0.));
#150=DIRECTION('ref_axis',(0.,0.,-1.));
#151=DIRECTION('center_axis',(1.,-2.28392055331117E-16,0.));
#152=DIRECTION('ref_axis',(0.,0.,-1.));
#153=DIRECTION('center_axis',(1.,-2.28392055331117E-16,0.));
#154=DIRECTION('ref_axis',(0.,0.,-1.));
#155=DIRECTION('center_axis',(1.,-2.28392055331117E-16,0.));
#156=DIRECTION('ref_axis',(2.75831807360287E-16,1.,0.));
#157=DIRECTION('center_axis',(1.,-2.28392055331117E-16,0.));
#158=DIRECTION('ref_axis',(0.,0.,-1.));
#159=DIRECTION('center_axis',(1.,-2.28392055331117E-16,0.));
#160=DIRECTION('ref_axis',(0.,0.,-1.));
#161=DIRECTION('center_axis',(1.,-2.28392055331117E-16,0.));
#162=DIRECTION('ref_axis',(0.,0.,-1.));
#163=DIRECTION('center_axis',(1.,-2.28392055331117E-16,0.));
#164=DIRECTION('ref_axis',(0.,0.,-1.));
#165=DIRECTION('center_axis',(0.,0.,1.));
#166=DIRECTION('ref_axis',(1.,0.,0.));
#167=DIRECTION('center_axis',(1.,-2.28392055331117E-16,0.));
#168=DIRECTION('ref_axis',(0.,0.,-1.));
#169=DIRECTION('center_axis',(1.,-2.28392055331117E-16,0.));
#170=DIRECTION('ref_axis',(0.,0.,-1.));
#171=DIRECTION('center_axis',(1.,-2.28392055331117E-16,0.));
#172=DIRECTION('ref_axis',(0.,0.,-1.));
#173=DIRECTION('center_axis',(1.,-2.28392055331117E-16,0.));
#174=DIRECTION('ref_axis',(2.75831807360287E-16,1.,0.));
#175=CARTESIAN_POINT('',(0.,0.,0.));
#176=CARTESIAN_POINT('Origin',(-0.500000000000003,1.14196027665559E-16,
0.));
#177=CARTESIAN_POINT('',(0.,7.05,0.));
#178=CARTESIAN_POINT('Origin',(-1.11022302462516E-15,2.46519032881566E-31,
0.));
#179=CARTESIAN_POINT('',(-1.,8.05,0.));
#180=CARTESIAN_POINT('Origin',(-1.,2.28392055331118E-16,0.));
#181=CARTESIAN_POINT('Origin',(0.,6.2,0.));
#182=CARTESIAN_POINT('',(0.,6.2,0.));
#183=CARTESIAN_POINT('Origin',(-1.11022302462516E-15,2.46519032881566E-31,
0.));
#184=CARTESIAN_POINT('Origin',(-0.0500000000000012,1.14196027665561E-17,
0.));
#185=CARTESIAN_POINT('',(-0.0500000000000001,6.15,0.));
#186=CARTESIAN_POINT('Origin',(-0.0500000000000012,1.14196027665561E-17,
0.));
#187=CARTESIAN_POINT('Origin',(-6.275,1.43316014720276E-15,0.));
#188=CARTESIAN_POINT('',(-12.5,6.15,0.));
#189=CARTESIAN_POINT('Origin',(-12.5,2.85490069163896E-15,0.));
#190=CARTESIAN_POINT('Origin',(-12.5,2.85490069163896E-15,0.));
#191=CARTESIAN_POINT('',(-15.5,3.15,0.));
#192=CARTESIAN_POINT('Origin',(-15.5,3.54007685763232E-15,0.));
#193=CARTESIAN_POINT('Origin',(-15.5,3.33066907387547E-15,0.));
#194=CARTESIAN_POINT('Origin',(-12.,-5.55111512312578E-15,0.));
#195=CARTESIAN_POINT('',(-15.5,12.,0.));
#196=CARTESIAN_POINT('Origin',(-15.5,3.54007685763232E-15,0.));
#197=CARTESIAN_POINT('Origin',(-15.5,8.05,0.));
#198=CARTESIAN_POINT('',(-15.5,8.05,0.));
#199=CARTESIAN_POINT('Origin',(-15.5,3.54007685763232E-15,0.));
#200=CARTESIAN_POINT('Origin',(-8.25,1.88423445648172E-15,0.));
#201=UNCERTAINTY_MEASURE_WITH_UNIT(LENGTH_MEASURE(0.01),#205,
'DISTANCE_ACCURACY_VALUE',
'Maximum model space distance between geometric entities at asserted c
onnectivities');
#202=UNCERTAINTY_MEASURE_WITH_UNIT(LENGTH_MEASURE(1.E-6),#205,
'DISTANCE_ACCURACY_VALUE',
'Maximum model space distance between geometric entities at asserted c
onnectivities');
#203=(
GEOMETRIC_REPRESENTATION_CONTEXT(3)
GLOBAL_UNCERTAINTY_ASSIGNED_CONTEXT((#201))
GLOBAL_UNIT_ASSIGNED_CONTEXT((#205,#208,#206))
REPRESENTATION_CONTEXT('','3D')
);
#204=(
GEOMETRIC_REPRESENTATION_CONTEXT(3)
GLOBAL_UNCERTAINTY_ASSIGNED_CONTEXT((#202))
GLOBAL_UNIT_ASSIGNED_CONTEXT((#205,#208,#206))
REPRESENTATION_CONTEXT('','3D')
);
#205=(
LENGTH_UNIT()
NAMED_UNIT(*)
SI_UNIT(.MILLI.,.METRE.)
);
#206=(
NAMED_UNIT(*)
SI_UNIT($,.STERADIAN.)
SOLID_ANGLE_UNIT()
);
#207=DIMENSIONAL_EXPONENTS(0.,0.,0.,0.,0.,0.,0.);
#208=(
CONVERSION_BASED_UNIT('degree',#210)
NAMED_UNIT(#207)
PLANE_ANGLE_UNIT()
);
#209=(
NAMED_UNIT(*)
PLANE_ANGLE_UNIT()
SI_UNIT($,.RADIAN.)
);
#210=PLANE_ANGLE_MEASURE_WITH_UNIT(PLANE_ANGLE_MEASURE(0.01745329252),#209);
#211=SHAPE_DEFINITION_REPRESENTATION(#212,#213);
#212=PRODUCT_DEFINITION_SHAPE('',$,#215);
#213=SHAPE_REPRESENTATION('',(#121),#203);
#214=PRODUCT_DEFINITION_CONTEXT('part definition',#219,'design');
#215=PRODUCT_DEFINITION('Blindstopfen-01-BT-0010-82007532X3DS',
'Blindstopfen-01-BT-0010-82007532X3DS',#216,#214);
#216=PRODUCT_DEFINITION_FORMATION('',$,#221);
#217=PRODUCT_RELATED_PRODUCT_CATEGORY(
'Blindstopfen-01-BT-0010-82007532X3DS',
'Blindstopfen-01-BT-0010-82007532X3DS',(#221));
#218=APPLICATION_PROTOCOL_DEFINITION('international standard',
'automotive_design',2009,#219);
#219=APPLICATION_CONTEXT(
'Core Data for Automotive Mechanical Design Process');
#220=PRODUCT_CONTEXT('part definition',#219,'mechanical');
#221=PRODUCT('Blindstopfen-01-BT-0010-82007532X3DS',
'Blindstopfen-01-BT-0010-82007532X3DS','Blindstopfen M32 (9-16/11-16)',
(#220));
#222=PRESENTATION_STYLE_ASSIGNMENT((#224));
#223=PRESENTATION_STYLE_ASSIGNMENT((#225));
#224=SURFACE_STYLE_USAGE(.BOTH.,#226);
#225=SURFACE_STYLE_USAGE(.BOTH.,#227);
#226=SURFACE_SIDE_STYLE('',(#228));
#227=SURFACE_SIDE_STYLE('',(#229));
#228=SURFACE_STYLE_FILL_AREA(#230);
#229=SURFACE_STYLE_FILL_AREA(#231);
#230=FILL_AREA_STYLE('',(#232));
#231=FILL_AREA_STYLE('',(#233));
#232=FILL_AREA_STYLE_COLOUR('',#234);
#233=FILL_AREA_STYLE_COLOUR('',#235);
#234=COLOUR_RGB('',0.945098039215686,0.949019607843137,0.972549019607843);
#235=COLOUR_RGB('',0.0196078431372549,0.0196078431372549,0.0196078431372549);
ENDSEC;
END-ISO-10303-21;
