ISO-10303-21;
HEADER;
/* Generated by software containing ST-Developer
 * from STEP Tools, Inc. (www.steptools.com) 
 */

FILE_DESCRIPTION(
/* description */ ('Blindstopfen X3 23-32 (25-32)'),
/* implementation_level */ '2;1');

FILE_NAME(
/* name */ 
'Y:\\Produkte\\Produktdaten_Produktdarstellungen\\Produktdarstellungen
_Bilder-3DModelle-etc\\3D-Modelle\\Kundenversionen\\Bimed\\RST-SL\\Bli
ndstopfen-X3\\Standard\\82007541X3-RST.stp',
/* time_stamp */ '2021-03-22T14:02:36+01:00',
/* author */ ('sl'),
/* organization */ (''),
/* preprocessor_version */ 'ST-DEVELOPER v16.5',
/* originating_system */ 'Autodesk Inventor 2017',
/* authorisation */ '');

FILE_SCHEMA (('AUTOMOTIVE_DESIGN { 1 0 10303 214 3 1 1 }'));
ENDSEC;

DATA;
#10=MECHANICAL_DESIGN_GEOMETRIC_PRESENTATION_REPRESENTATION('',(#139,#138,
#129,#131,#132,#133,#134,#135,#130,#136,#137),#321);
#11=SHAPE_REPRESENTATION_RELATIONSHIP('SRR','None',#330,#12);
#12=ADVANCED_BREP_SHAPE_REPRESENTATION('',(#13),#320);
#13=MANIFOLD_SOLID_BREP('Volumenk\X\F6rper1',#150);
#14=(
BOUNDED_CURVE()
B_SPLINE_CURVE(2,(#268,#269,#270),.UNSPECIFIED.,.F.,.F.)
B_SPLINE_CURVE_WITH_KNOTS((3,3),(1.75379975237615E-15,1.5707963267949),
 .UNSPECIFIED.)
CURVE()
GEOMETRIC_REPRESENTATION_ITEM()
RATIONAL_B_SPLINE_CURVE((1.,0.707106781186548,1.))
REPRESENTATION_ITEM('')
);
#15=(
BOUNDED_CURVE()
B_SPLINE_CURVE(2,(#311,#312,#313),.UNSPECIFIED.,.F.,.F.)
B_SPLINE_CURVE_WITH_KNOTS((3,3),(2.43075241194859E-15,1.5707963267949),
 .UNSPECIFIED.)
CURVE()
GEOMETRIC_REPRESENTATION_ITEM()
RATIONAL_B_SPLINE_CURVE((1.,0.707106781186547,1.))
REPRESENTATION_ITEM('')
);
#16=(
BOUNDED_SURFACE()
B_SPLINE_SURFACE(2,2,((#240,#241,#242,#243,#244,#245,#246,#247,#248),(#249,
#250,#251,#252,#253,#254,#255,#256,#257),(#258,#259,#260,#261,#262,#263,
#264,#265,#266)),.UNSPECIFIED.,.F.,.T.,.F.)
B_SPLINE_SURFACE_WITH_KNOTS((3,3),(3,2,2,2,3),(-1.5707963267949,-1.75379975237615E-15),
(-3.14159265358979,-1.5707963267949,0.,1.5707963267949,3.14159265358979),
 .UNSPECIFIED.)
GEOMETRIC_REPRESENTATION_ITEM()
RATIONAL_B_SPLINE_SURFACE(((1.,0.707106781186548,1.,0.707106781186548,1.,
0.707106781186548,1.,0.707106781186548,1.),(0.707106781186548,0.5,0.707106781186548,
0.5,0.707106781186548,0.5,0.707106781186548,0.5,0.707106781186548),(1.,
0.707106781186548,1.,0.707106781186548,1.,0.707106781186548,1.,0.707106781186548,
1.)))
REPRESENTATION_ITEM('')
SURFACE()
);
#17=(
BOUNDED_SURFACE()
B_SPLINE_SURFACE(2,2,((#280,#281,#282,#283,#284,#285,#286,#287,#288),(#289,
#290,#291,#292,#293,#294,#295,#296,#297),(#298,#299,#300,#301,#302,#303,
#304,#305,#306)),.UNSPECIFIED.,.F.,.T.,.F.)
B_SPLINE_SURFACE_WITH_KNOTS((3,3),(3,2,2,2,3),(-1.5707963267949,-2.43075241194859E-15),
(-3.14159265358979,-1.5707963267949,0.,1.5707963267949,3.14159265358979),
 .UNSPECIFIED.)
GEOMETRIC_REPRESENTATION_ITEM()
RATIONAL_B_SPLINE_SURFACE(((1.,0.707106781186548,1.,0.707106781186548,1.,
0.707106781186548,1.,0.707106781186548,1.),(0.707106781186547,0.499999999999999,
0.707106781186547,0.499999999999999,0.707106781186547,0.499999999999999,
0.707106781186547,0.499999999999999,0.707106781186547),(1.,0.707106781186548,
1.,0.707106781186548,1.,0.707106781186548,1.,0.707106781186548,1.)))
REPRESENTATION_ITEM('')
SURFACE()
);
#18=CYLINDRICAL_SURFACE('',#165,14.2);
#19=CYLINDRICAL_SURFACE('',#178,15.9);
#20=TOROIDAL_SURFACE('',#163,14.25,0.0500000000000008);
#21=PLANE('',#161);
#22=PLANE('',#170);
#23=PLANE('',#171);
#24=PLANE('',#176);
#25=FACE_BOUND('',#42,.T.);
#26=FACE_BOUND('',#44,.T.);
#27=FACE_BOUND('',#46,.T.);
#28=FACE_BOUND('',#48,.T.);
#29=FACE_BOUND('',#54,.T.);
#30=FACE_BOUND('',#56,.T.);
#31=FACE_OUTER_BOUND('',#41,.T.);
#32=FACE_OUTER_BOUND('',#43,.T.);
#33=FACE_OUTER_BOUND('',#45,.T.);
#34=FACE_OUTER_BOUND('',#47,.T.);
#35=FACE_OUTER_BOUND('',#49,.T.);
#36=FACE_OUTER_BOUND('',#50,.T.);
#37=FACE_OUTER_BOUND('',#51,.T.);
#38=FACE_OUTER_BOUND('',#52,.T.);
#39=FACE_OUTER_BOUND('',#53,.T.);
#40=FACE_OUTER_BOUND('',#55,.T.);
#41=EDGE_LOOP('',(#98));
#42=EDGE_LOOP('',(#99));
#43=EDGE_LOOP('',(#100));
#44=EDGE_LOOP('',(#101));
#45=EDGE_LOOP('',(#102));
#46=EDGE_LOOP('',(#103));
#47=EDGE_LOOP('',(#104,#105));
#48=EDGE_LOOP('',(#106));
#49=EDGE_LOOP('',(#107,#108,#109,#110,#111,#112));
#50=EDGE_LOOP('',(#113,#114));
#51=EDGE_LOOP('',(#115,#116));
#52=EDGE_LOOP('',(#117,#118,#119,#120,#121,#122));
#53=EDGE_LOOP('',(#123,#124));
#54=EDGE_LOOP('',(#125));
#55=EDGE_LOOP('',(#126));
#56=EDGE_LOOP('',(#127));
#57=CIRCLE('',#159,14.9);
#58=CIRCLE('',#160,15.9);
#59=CIRCLE('',#162,14.25);
#60=CIRCLE('',#164,14.2);
#61=CIRCLE('',#166,14.2);
#62=CIRCLE('',#167,14.2);
#63=CIRCLE('',#168,4.19999999999997);
#64=CIRCLE('',#169,4.19999999999997);
#65=CIRCLE('',#172,7.69999999999994);
#66=CIRCLE('',#173,7.69999999999994);
#67=CIRCLE('',#174,18.4);
#68=CIRCLE('',#175,18.4);
#69=CIRCLE('',#177,15.9);
#70=VERTEX_POINT('',#225);
#71=VERTEX_POINT('',#227);
#72=VERTEX_POINT('',#230);
#73=VERTEX_POINT('',#233);
#74=VERTEX_POINT('',#236);
#75=VERTEX_POINT('',#237);
#76=VERTEX_POINT('',#267);
#77=VERTEX_POINT('',#271);
#78=VERTEX_POINT('',#276);
#79=VERTEX_POINT('',#277);
#80=VERTEX_POINT('',#307);
#81=VERTEX_POINT('',#308);
#82=VERTEX_POINT('',#315);
#83=EDGE_CURVE('',#70,#70,#57,.T.);
#84=EDGE_CURVE('',#71,#71,#58,.T.);
#85=EDGE_CURVE('',#72,#72,#59,.T.);
#86=EDGE_CURVE('',#73,#73,#60,.T.);
#87=EDGE_CURVE('',#74,#75,#61,.T.);
#88=EDGE_CURVE('',#75,#74,#62,.T.);
#89=EDGE_CURVE('',#75,#76,#14,.T.);
#90=EDGE_CURVE('',#77,#76,#63,.T.);
#91=EDGE_CURVE('',#76,#77,#64,.T.);
#92=EDGE_CURVE('',#78,#79,#65,.T.);
#93=EDGE_CURVE('',#79,#78,#66,.T.);
#94=EDGE_CURVE('',#80,#81,#67,.T.);
#95=EDGE_CURVE('',#81,#80,#68,.T.);
#96=EDGE_CURVE('',#81,#79,#15,.T.);
#97=EDGE_CURVE('',#82,#82,#69,.T.);
#98=ORIENTED_EDGE('',*,*,#83,.F.);
#99=ORIENTED_EDGE('',*,*,#84,.T.);
#100=ORIENTED_EDGE('',*,*,#83,.T.);
#101=ORIENTED_EDGE('',*,*,#85,.F.);
#102=ORIENTED_EDGE('',*,*,#86,.F.);
#103=ORIENTED_EDGE('',*,*,#85,.T.);
#104=ORIENTED_EDGE('',*,*,#87,.F.);
#105=ORIENTED_EDGE('',*,*,#88,.F.);
#106=ORIENTED_EDGE('',*,*,#86,.T.);
#107=ORIENTED_EDGE('',*,*,#87,.T.);
#108=ORIENTED_EDGE('',*,*,#89,.T.);
#109=ORIENTED_EDGE('',*,*,#90,.F.);
#110=ORIENTED_EDGE('',*,*,#91,.F.);
#111=ORIENTED_EDGE('',*,*,#89,.F.);
#112=ORIENTED_EDGE('',*,*,#88,.T.);
#113=ORIENTED_EDGE('',*,*,#90,.T.);
#114=ORIENTED_EDGE('',*,*,#91,.T.);
#115=ORIENTED_EDGE('',*,*,#92,.F.);
#116=ORIENTED_EDGE('',*,*,#93,.F.);
#117=ORIENTED_EDGE('',*,*,#94,.F.);
#118=ORIENTED_EDGE('',*,*,#95,.F.);
#119=ORIENTED_EDGE('',*,*,#96,.T.);
#120=ORIENTED_EDGE('',*,*,#93,.T.);
#121=ORIENTED_EDGE('',*,*,#92,.T.);
#122=ORIENTED_EDGE('',*,*,#96,.F.);
#123=ORIENTED_EDGE('',*,*,#94,.T.);
#124=ORIENTED_EDGE('',*,*,#95,.T.);
#125=ORIENTED_EDGE('',*,*,#97,.F.);
#126=ORIENTED_EDGE('',*,*,#84,.F.);
#127=ORIENTED_EDGE('',*,*,#97,.T.);
#128=CONICAL_SURFACE('',#158,15.4,44.9999999999999);
#129=STYLED_ITEM('',(#340),#140);
#130=STYLED_ITEM('',(#340),#141);
#131=STYLED_ITEM('',(#340),#142);
#132=STYLED_ITEM('',(#340),#143);
#133=STYLED_ITEM('',(#340),#144);
#134=STYLED_ITEM('',(#340),#145);
#135=STYLED_ITEM('',(#340),#146);
#136=STYLED_ITEM('',(#340),#147);
#137=STYLED_ITEM('',(#340),#148);
#138=STYLED_ITEM('',(#340),#149);
#139=STYLED_ITEM('',(#339),#13);
#140=ADVANCED_FACE('',(#31,#25),#128,.T.);
#141=ADVANCED_FACE('',(#32,#26),#21,.T.);
#142=ADVANCED_FACE('',(#33,#27),#20,.T.);
#143=ADVANCED_FACE('',(#34,#28),#18,.F.);
#144=ADVANCED_FACE('',(#35),#16,.T.);
#145=ADVANCED_FACE('',(#36),#22,.T.);
#146=ADVANCED_FACE('',(#37),#23,.T.);
#147=ADVANCED_FACE('',(#38),#17,.F.);
#148=ADVANCED_FACE('',(#39,#29),#24,.T.);
#149=ADVANCED_FACE('',(#40,#30),#19,.T.);
#150=CLOSED_SHELL('',(#140,#141,#142,#143,#144,#145,#146,#147,#148,#149));
#151=DATE_TIME_ROLE('creation_date');
#152=APPLIED_DATE_AND_TIME_ASSIGNMENT(#153,#151,(#332));
#153=DATE_AND_TIME(#154,#155);
#154=CALENDAR_DATE(2021,21,3);
#155=LOCAL_TIME(23,0,0.,#156);
#156=COORDINATED_UNIVERSAL_TIME_OFFSET(0,0,.BEHIND.);
#157=AXIS2_PLACEMENT_3D('placement',#223,#179,#180);
#158=AXIS2_PLACEMENT_3D('',#224,#181,#182);
#159=AXIS2_PLACEMENT_3D('',#226,#183,#184);
#160=AXIS2_PLACEMENT_3D('',#228,#185,#186);
#161=AXIS2_PLACEMENT_3D('',#229,#187,#188);
#162=AXIS2_PLACEMENT_3D('',#231,#189,#190);
#163=AXIS2_PLACEMENT_3D('',#232,#191,#192);
#164=AXIS2_PLACEMENT_3D('',#234,#193,#194);
#165=AXIS2_PLACEMENT_3D('',#235,#195,#196);
#166=AXIS2_PLACEMENT_3D('',#238,#197,#198);
#167=AXIS2_PLACEMENT_3D('',#239,#199,#200);
#168=AXIS2_PLACEMENT_3D('',#272,#201,#202);
#169=AXIS2_PLACEMENT_3D('',#273,#203,#204);
#170=AXIS2_PLACEMENT_3D('',#274,#205,#206);
#171=AXIS2_PLACEMENT_3D('',#275,#207,#208);
#172=AXIS2_PLACEMENT_3D('',#278,#209,#210);
#173=AXIS2_PLACEMENT_3D('',#279,#211,#212);
#174=AXIS2_PLACEMENT_3D('',#309,#213,#214);
#175=AXIS2_PLACEMENT_3D('',#310,#215,#216);
#176=AXIS2_PLACEMENT_3D('',#314,#217,#218);
#177=AXIS2_PLACEMENT_3D('',#316,#219,#220);
#178=AXIS2_PLACEMENT_3D('',#317,#221,#222);
#179=DIRECTION('axis',(0.,0.,1.));
#180=DIRECTION('refdir',(1.,0.,0.));
#181=DIRECTION('center_axis',(-1.,2.01691744859248E-15,0.));
#182=DIRECTION('ref_axis',(1.95510972889965E-15,1.,0.));
#183=DIRECTION('center_axis',(1.,-2.01691744859248E-15,0.));
#184=DIRECTION('ref_axis',(0.,0.,-1.));
#185=DIRECTION('center_axis',(1.,-2.01691744859248E-15,0.));
#186=DIRECTION('ref_axis',(0.,0.,-1.));
#187=DIRECTION('center_axis',(1.,-2.01691744859248E-15,0.));
#188=DIRECTION('ref_axis',(0.,0.,-1.));
#189=DIRECTION('center_axis',(1.,-2.01691744859248E-15,0.));
#190=DIRECTION('ref_axis',(0.,0.,-1.));
#191=DIRECTION('center_axis',(1.,-2.01691744859248E-15,0.));
#192=DIRECTION('ref_axis',(0.,0.,-1.));
#193=DIRECTION('center_axis',(1.,-2.01691744859248E-15,0.));
#194=DIRECTION('ref_axis',(0.,0.,-1.));
#195=DIRECTION('center_axis',(1.,-2.01691744859248E-15,0.));
#196=DIRECTION('ref_axis',(1.95510972889965E-15,1.,0.));
#197=DIRECTION('center_axis',(1.,-2.01691744859248E-15,0.));
#198=DIRECTION('ref_axis',(0.,0.,-1.));
#199=DIRECTION('center_axis',(1.,-2.01691744859248E-15,0.));
#200=DIRECTION('ref_axis',(0.,0.,-1.));
#201=DIRECTION('center_axis',(1.,-2.01691744859248E-15,0.));
#202=DIRECTION('ref_axis',(0.,0.,-1.));
#203=DIRECTION('center_axis',(1.,-2.01691744859248E-15,0.));
#204=DIRECTION('ref_axis',(0.,0.,-1.));
#205=DIRECTION('center_axis',(1.,-2.01691744859248E-15,0.));
#206=DIRECTION('ref_axis',(0.,0.,-1.));
#207=DIRECTION('center_axis',(-1.,2.01691744859248E-15,0.));
#208=DIRECTION('ref_axis',(0.,0.,1.));
#209=DIRECTION('center_axis',(1.,-2.01691744859248E-15,0.));
#210=DIRECTION('ref_axis',(0.,0.,-1.));
#211=DIRECTION('center_axis',(1.,-2.01691744859248E-15,0.));
#212=DIRECTION('ref_axis',(0.,0.,-1.));
#213=DIRECTION('center_axis',(1.,-2.01691744859248E-15,0.));
#214=DIRECTION('ref_axis',(0.,0.,-1.));
#215=DIRECTION('center_axis',(1.,-2.01691744859248E-15,0.));
#216=DIRECTION('ref_axis',(0.,0.,-1.));
#217=DIRECTION('center_axis',(1.,-2.01691744859248E-15,0.));
#218=DIRECTION('ref_axis',(0.,0.,-1.));
#219=DIRECTION('center_axis',(1.,-2.01691744859248E-15,0.));
#220=DIRECTION('ref_axis',(0.,0.,-1.));
#221=DIRECTION('center_axis',(1.,-2.01691744859248E-15,0.));
#222=DIRECTION('ref_axis',(1.95510972889965E-15,1.,0.));
#223=CARTESIAN_POINT('',(0.,0.,0.));
#224=CARTESIAN_POINT('Origin',(-0.500000000000032,1.0084587242963E-15,0.));
#225=CARTESIAN_POINT('',(0.,14.9,0.));
#226=CARTESIAN_POINT('Origin',(-3.10862446895044E-14,6.31088724176809E-29,
0.));
#227=CARTESIAN_POINT('',(-1.,15.9,0.));
#228=CARTESIAN_POINT('Origin',(-1.00000000000003,2.01691744859254E-15,0.));
#229=CARTESIAN_POINT('Origin',(0.,14.25,0.));
#230=CARTESIAN_POINT('',(0.,14.25,0.));
#231=CARTESIAN_POINT('Origin',(-2.88657986402541E-14,5.91645678915759E-29,
0.));
#232=CARTESIAN_POINT('Origin',(-0.0500000000000278,1.00845872429681E-16,
0.));
#233=CARTESIAN_POINT('',(-0.0500000000000001,14.2,0.));
#234=CARTESIAN_POINT('Origin',(-0.05000000000003,1.00845872429685E-16,0.));
#235=CARTESIAN_POINT('Origin',(-7.87500000000002,1.58832249076658E-14,0.));
#236=CARTESIAN_POINT('',(-15.7,14.2,0.));
#237=CARTESIAN_POINT('',(-15.7,3.16656039429019E-14,14.2));
#238=CARTESIAN_POINT('Origin',(-15.7,3.16656039429019E-14,0.));
#239=CARTESIAN_POINT('Origin',(-15.7,3.16656039429019E-14,0.));
#240=CARTESIAN_POINT('Ctrl Pts',(-25.7,5.18347784288266E-14,4.19999999999997));
#241=CARTESIAN_POINT('Ctrl Pts',(-25.7,-4.19999999999992,4.19999999999997));
#242=CARTESIAN_POINT('Ctrl Pts',(-25.7,-4.19999999999992,7.88860905221012E-30));
#243=CARTESIAN_POINT('Ctrl Pts',(-25.7,-4.19999999999992,-4.19999999999997));
#244=CARTESIAN_POINT('Ctrl Pts',(-25.7,5.18347784288266E-14,-4.19999999999997));
#245=CARTESIAN_POINT('Ctrl Pts',(-25.7,4.20000000000002,-4.19999999999997));
#246=CARTESIAN_POINT('Ctrl Pts',(-25.7,4.20000000000002,-7.88860905221012E-30));
#247=CARTESIAN_POINT('Ctrl Pts',(-25.7,4.20000000000002,4.19999999999997));
#248=CARTESIAN_POINT('Ctrl Pts',(-25.7,5.18347784288266E-14,4.19999999999997));
#249=CARTESIAN_POINT('Ctrl Pts',(-25.7,5.18347784288266E-14,14.1999999999999));
#250=CARTESIAN_POINT('Ctrl Pts',(-25.7,-14.1999999999999,14.1999999999999));
#251=CARTESIAN_POINT('Ctrl Pts',(-25.7,-14.1999999999999,7.88860905221012E-30));
#252=CARTESIAN_POINT('Ctrl Pts',(-25.7,-14.1999999999999,-14.1999999999999));
#253=CARTESIAN_POINT('Ctrl Pts',(-25.7,5.18347784288266E-14,-14.1999999999999));
#254=CARTESIAN_POINT('Ctrl Pts',(-25.7,14.2,-14.1999999999999));
#255=CARTESIAN_POINT('Ctrl Pts',(-25.7,14.2,-7.88860905221012E-30));
#256=CARTESIAN_POINT('Ctrl Pts',(-25.7,14.2,14.1999999999999));
#257=CARTESIAN_POINT('Ctrl Pts',(-25.7,5.18347784288266E-14,14.1999999999999));
#258=CARTESIAN_POINT('Ctrl Pts',(-15.7,3.16656039429019E-14,14.2));
#259=CARTESIAN_POINT('Ctrl Pts',(-15.7,-14.1999999999999,14.2));
#260=CARTESIAN_POINT('Ctrl Pts',(-15.7,-14.1999999999999,0.));
#261=CARTESIAN_POINT('Ctrl Pts',(-15.7,-14.1999999999999,-14.2));
#262=CARTESIAN_POINT('Ctrl Pts',(-15.7,3.16656039429019E-14,-14.2));
#263=CARTESIAN_POINT('Ctrl Pts',(-15.7,14.2,-14.2));
#264=CARTESIAN_POINT('Ctrl Pts',(-15.7,14.2,0.));
#265=CARTESIAN_POINT('Ctrl Pts',(-15.7,14.2,14.2));
#266=CARTESIAN_POINT('Ctrl Pts',(-15.7,3.16656039429019E-14,14.2));
#267=CARTESIAN_POINT('',(-25.7,5.18347784288266E-14,4.19999999999997));
#268=CARTESIAN_POINT('Ctrl Pts',(-15.7,3.16656039429019E-14,14.2));
#269=CARTESIAN_POINT('Ctrl Pts',(-25.7,5.18347784288266E-14,14.1999999999999));
#270=CARTESIAN_POINT('Ctrl Pts',(-25.7,5.18347784288266E-14,4.19999999999997));
#271=CARTESIAN_POINT('',(-25.7,4.20000000000002,0.));
#272=CARTESIAN_POINT('Origin',(-25.7,5.18347784288266E-14,0.));
#273=CARTESIAN_POINT('Origin',(-25.7,5.18347784288266E-14,0.));
#274=CARTESIAN_POINT('Origin',(-25.7,5.16253706450698E-14,0.));
#275=CARTESIAN_POINT('Origin',(-27.7,7.69999999999999,0.));
#276=CARTESIAN_POINT('',(-27.7,7.69999999999999,0.));
#277=CARTESIAN_POINT('',(-27.7,5.58686133260116E-14,7.69999999999994));
#278=CARTESIAN_POINT('Origin',(-27.7,5.58686133260116E-14,0.));
#279=CARTESIAN_POINT('Origin',(-27.7,5.58686133260116E-14,0.));
#280=CARTESIAN_POINT('Ctrl Pts',(-27.7,5.58686133260116E-14,7.69999999999994));
#281=CARTESIAN_POINT('Ctrl Pts',(-27.7,-7.69999999999988,7.69999999999994));
#282=CARTESIAN_POINT('Ctrl Pts',(-27.7,-7.69999999999988,0.));
#283=CARTESIAN_POINT('Ctrl Pts',(-27.7,-7.69999999999988,-7.69999999999994));
#284=CARTESIAN_POINT('Ctrl Pts',(-27.7,5.58686133260116E-14,-7.69999999999994));
#285=CARTESIAN_POINT('Ctrl Pts',(-27.7,7.69999999999999,-7.69999999999994));
#286=CARTESIAN_POINT('Ctrl Pts',(-27.7,7.69999999999999,0.));
#287=CARTESIAN_POINT('Ctrl Pts',(-27.7,7.69999999999999,7.69999999999994));
#288=CARTESIAN_POINT('Ctrl Pts',(-27.7,5.58686133260116E-14,7.69999999999994));
#289=CARTESIAN_POINT('Ctrl Pts',(-27.7,5.58686133260117E-14,18.3999999999999));
#290=CARTESIAN_POINT('Ctrl Pts',(-27.7000000000001,-18.3999999999999,18.3999999999999));
#291=CARTESIAN_POINT('Ctrl Pts',(-27.7000000000001,-18.3999999999999,0.));
#292=CARTESIAN_POINT('Ctrl Pts',(-27.7000000000001,-18.3999999999999,-18.3999999999999));
#293=CARTESIAN_POINT('Ctrl Pts',(-27.7,5.58686133260117E-14,-18.3999999999999));
#294=CARTESIAN_POINT('Ctrl Pts',(-27.7,18.4,-18.3999999999999));
#295=CARTESIAN_POINT('Ctrl Pts',(-27.7,18.4,0.));
#296=CARTESIAN_POINT('Ctrl Pts',(-27.7,18.4,18.3999999999999));
#297=CARTESIAN_POINT('Ctrl Pts',(-27.7,5.58686133260117E-14,18.3999999999999));
#298=CARTESIAN_POINT('Ctrl Pts',(-17.,3.42875966260722E-14,18.4));
#299=CARTESIAN_POINT('Ctrl Pts',(-17.0000000000001,-18.3999999999999,18.4));
#300=CARTESIAN_POINT('Ctrl Pts',(-17.0000000000001,-18.3999999999999,3.94430452610506E-30));
#301=CARTESIAN_POINT('Ctrl Pts',(-17.0000000000001,-18.3999999999999,-18.4));
#302=CARTESIAN_POINT('Ctrl Pts',(-17.,3.42875966260722E-14,-18.4));
#303=CARTESIAN_POINT('Ctrl Pts',(-17.,18.4,-18.4));
#304=CARTESIAN_POINT('Ctrl Pts',(-17.,18.4,-3.94430452610506E-30));
#305=CARTESIAN_POINT('Ctrl Pts',(-17.,18.4,18.4));
#306=CARTESIAN_POINT('Ctrl Pts',(-17.,3.42875966260722E-14,18.4));
#307=CARTESIAN_POINT('',(-17.,18.4,0.));
#308=CARTESIAN_POINT('',(-17.,3.42875966260722E-14,18.4));
#309=CARTESIAN_POINT('Origin',(-17.,3.42875966260722E-14,0.));
#310=CARTESIAN_POINT('Origin',(-17.,3.42875966260722E-14,0.));
#311=CARTESIAN_POINT('Ctrl Pts',(-17.,3.42875966260722E-14,18.4));
#312=CARTESIAN_POINT('Ctrl Pts',(-27.7,5.58686133260117E-14,18.3999999999999));
#313=CARTESIAN_POINT('Ctrl Pts',(-27.7,5.58686133260116E-14,7.69999999999994));
#314=CARTESIAN_POINT('Origin',(-17.,15.9,0.));
#315=CARTESIAN_POINT('',(-17.,15.9,0.));
#316=CARTESIAN_POINT('Origin',(-17.,3.42875966260722E-14,0.));
#317=CARTESIAN_POINT('Origin',(-9.00000000000003,1.81522570373323E-14,0.));
#318=UNCERTAINTY_MEASURE_WITH_UNIT(LENGTH_MEASURE(0.01),#322,
'DISTANCE_ACCURACY_VALUE',
'Maximum model space distance between geometric entities at asserted c
onnectivities');
#319=UNCERTAINTY_MEASURE_WITH_UNIT(LENGTH_MEASURE(1.E-6),#322,
'DISTANCE_ACCURACY_VALUE',
'Maximum model space distance between geometric entities at asserted c
onnectivities');
#320=(
GEOMETRIC_REPRESENTATION_CONTEXT(3)
GLOBAL_UNCERTAINTY_ASSIGNED_CONTEXT((#318))
GLOBAL_UNIT_ASSIGNED_CONTEXT((#322,#325,#323))
REPRESENTATION_CONTEXT('','3D')
);
#321=(
GEOMETRIC_REPRESENTATION_CONTEXT(3)
GLOBAL_UNCERTAINTY_ASSIGNED_CONTEXT((#319))
GLOBAL_UNIT_ASSIGNED_CONTEXT((#322,#325,#323))
REPRESENTATION_CONTEXT('','3D')
);
#322=(
LENGTH_UNIT()
NAMED_UNIT(*)
SI_UNIT(.MILLI.,.METRE.)
);
#323=(
NAMED_UNIT(*)
SI_UNIT($,.STERADIAN.)
SOLID_ANGLE_UNIT()
);
#324=DIMENSIONAL_EXPONENTS(0.,0.,0.,0.,0.,0.,0.);
#325=(
CONVERSION_BASED_UNIT('degree',#327)
NAMED_UNIT(#324)
PLANE_ANGLE_UNIT()
);
#326=(
NAMED_UNIT(*)
PLANE_ANGLE_UNIT()
SI_UNIT($,.RADIAN.)
);
#327=PLANE_ANGLE_MEASURE_WITH_UNIT(PLANE_ANGLE_MEASURE(0.01745329252),#326);
#328=SHAPE_DEFINITION_REPRESENTATION(#329,#330);
#329=PRODUCT_DEFINITION_SHAPE('',$,#332);
#330=SHAPE_REPRESENTATION('',(#157),#320);
#331=PRODUCT_DEFINITION_CONTEXT('part definition',#336,'design');
#332=PRODUCT_DEFINITION('82007541X3',
'Blindstopfen-01-BT-0001-82007541X3',#333,#331);
#333=PRODUCT_DEFINITION_FORMATION('',$,#338);
#334=PRODUCT_RELATED_PRODUCT_CATEGORY(
'Blindstopfen-01-BT-0001-82007541X3',
'Blindstopfen-01-BT-0001-82007541X3',(#338));
#335=APPLICATION_PROTOCOL_DEFINITION('international standard',
'automotive_design',2009,#336);
#336=APPLICATION_CONTEXT(
'Core Data for Automotive Mechanical Design Process');
#337=PRODUCT_CONTEXT('part definition',#336,'mechanical');
#338=PRODUCT('82007541X3','Blindstopfen-01-BT-0001-82007541X3',
'Blindstopfen X3 23-32 (25-32)',(#337));
#339=PRESENTATION_STYLE_ASSIGNMENT((#341));
#340=PRESENTATION_STYLE_ASSIGNMENT((#342));
#341=SURFACE_STYLE_USAGE(.BOTH.,#343);
#342=SURFACE_STYLE_USAGE(.BOTH.,#344);
#343=SURFACE_SIDE_STYLE('',(#345));
#344=SURFACE_SIDE_STYLE('',(#346));
#345=SURFACE_STYLE_FILL_AREA(#347);
#346=SURFACE_STYLE_FILL_AREA(#348);
#347=FILL_AREA_STYLE('',(#349));
#348=FILL_AREA_STYLE('',(#350));
#349=FILL_AREA_STYLE_COLOUR('',#351);
#350=FILL_AREA_STYLE_COLOUR('',#352);
#351=COLOUR_RGB('',0.858823529411765,0.823529411764706,0.705882352941177);
#352=COLOUR_RGB('',0.0196078431372549,0.0196078431372549,0.0196078431372549);
ENDSEC;
END-ISO-10303-21;
