ISO-10303-21;
HEADER;
/* Generated by software containing ST-Developer
 * from STEP Tools, Inc. (www.steptools.com) 
 */

FILE_DESCRIPTION(
/* description */ ('Schutzkappe'),
/* implementation_level */ '2;1');

FILE_NAME(
/* name */ 
'Y:\\Produkte\\Produktdaten_Produktdarstellungen\\Produktdarstellungen
_Bilder-3DModelle-etc\\3D-Modelle\\Kundenversionen\\Bimed\\RST-SL\\Shr
oud\\SHG90PVC-RST.stp',
/* time_stamp */ '2021-03-04T12:28:38+01:00',
/* author */ ('sl'),
/* organization */ (''),
/* preprocessor_version */ 'ST-DEVELOPER v16.5',
/* originating_system */ 'Autodesk Inventor 2017',
/* authorisation */ '');

FILE_SCHEMA (('AUTOMOTIVE_DESIGN { 1 0 10303 214 3 1 1 }'));
ENDSEC;

DATA;
#10=MECHANICAL_DESIGN_GEOMETRIC_PRESENTATION_REPRESENTATION('',(#13),#215);
#11=SHAPE_REPRESENTATION_RELATIONSHIP('SRR','None',#224,#12);
#12=ADVANCED_BREP_SHAPE_REPRESENTATION('',(#14),#214);
#13=STYLED_ITEM('',(#233),#14);
#14=MANIFOLD_SOLID_BREP('Volumenk\X\F6rper1',#116);
#15=SPHERICAL_SURFACE('',#139,0.350000000000011);
#16=SPHERICAL_SURFACE('',#140,1.85000000000001);
#17=CONICAL_SURFACE('',#137,21.5605077474456,38.0882328468667);
#18=CONICAL_SURFACE('',#142,22.9400938292034,38.0882328468667);
#19=PLANE('',#131);
#20=CYLINDRICAL_SURFACE('',#127,44.85);
#21=CYLINDRICAL_SURFACE('',#133,43.35);
#22=FACE_BOUND('',#41,.T.);
#23=FACE_BOUND('',#43,.T.);
#24=FACE_BOUND('',#45,.T.);
#25=FACE_BOUND('',#47,.T.);
#26=FACE_BOUND('',#49,.T.);
#27=FACE_BOUND('',#51,.T.);
#28=FACE_BOUND('',#53,.T.);
#29=FACE_BOUND('',#57,.T.);
#30=FACE_OUTER_BOUND('',#40,.T.);
#31=FACE_OUTER_BOUND('',#42,.T.);
#32=FACE_OUTER_BOUND('',#44,.T.);
#33=FACE_OUTER_BOUND('',#46,.T.);
#34=FACE_OUTER_BOUND('',#48,.T.);
#35=FACE_OUTER_BOUND('',#50,.T.);
#36=FACE_OUTER_BOUND('',#52,.T.);
#37=FACE_OUTER_BOUND('',#54,.T.);
#38=FACE_OUTER_BOUND('',#55,.T.);
#39=FACE_OUTER_BOUND('',#56,.T.);
#40=EDGE_LOOP('',(#85));
#41=EDGE_LOOP('',(#86));
#42=EDGE_LOOP('',(#87));
#43=EDGE_LOOP('',(#88));
#44=EDGE_LOOP('',(#89));
#45=EDGE_LOOP('',(#90));
#46=EDGE_LOOP('',(#91));
#47=EDGE_LOOP('',(#92));
#48=EDGE_LOOP('',(#93));
#49=EDGE_LOOP('',(#94));
#50=EDGE_LOOP('',(#95));
#51=EDGE_LOOP('',(#96));
#52=EDGE_LOOP('',(#97));
#53=EDGE_LOOP('',(#98));
#54=EDGE_LOOP('',(#99));
#55=EDGE_LOOP('',(#100));
#56=EDGE_LOOP('',(#101));
#57=EDGE_LOOP('',(#102));
#58=CIRCLE('',#125,44.85);
#59=CIRCLE('',#126,44.4241234589126);
#60=CIRCLE('',#128,44.85);
#61=CIRCLE('',#130,43.85);
#62=CIRCLE('',#132,43.35);
#63=CIRCLE('',#134,43.35);
#64=CIRCLE('',#136,42.8455438895814);
#65=CIRCLE('',#138,0.2754716053097);
#66=CIRCLE('',#141,1.45606419949412);
#67=VERTEX_POINT('',#185);
#68=VERTEX_POINT('',#187);
#69=VERTEX_POINT('',#190);
#70=VERTEX_POINT('',#193);
#71=VERTEX_POINT('',#196);
#72=VERTEX_POINT('',#199);
#73=VERTEX_POINT('',#202);
#74=VERTEX_POINT('',#205);
#75=VERTEX_POINT('',#209);
#76=EDGE_CURVE('',#67,#67,#58,.T.);
#77=EDGE_CURVE('',#68,#68,#59,.T.);
#78=EDGE_CURVE('',#69,#69,#60,.T.);
#79=EDGE_CURVE('',#70,#70,#61,.T.);
#80=EDGE_CURVE('',#71,#71,#62,.T.);
#81=EDGE_CURVE('',#72,#72,#63,.T.);
#82=EDGE_CURVE('',#73,#73,#64,.T.);
#83=EDGE_CURVE('',#74,#74,#65,.T.);
#84=EDGE_CURVE('',#75,#75,#66,.T.);
#85=ORIENTED_EDGE('',*,*,#76,.F.);
#86=ORIENTED_EDGE('',*,*,#77,.T.);
#87=ORIENTED_EDGE('',*,*,#78,.F.);
#88=ORIENTED_EDGE('',*,*,#76,.T.);
#89=ORIENTED_EDGE('',*,*,#79,.F.);
#90=ORIENTED_EDGE('',*,*,#78,.T.);
#91=ORIENTED_EDGE('',*,*,#79,.T.);
#92=ORIENTED_EDGE('',*,*,#80,.F.);
#93=ORIENTED_EDGE('',*,*,#81,.F.);
#94=ORIENTED_EDGE('',*,*,#80,.T.);
#95=ORIENTED_EDGE('',*,*,#82,.F.);
#96=ORIENTED_EDGE('',*,*,#81,.T.);
#97=ORIENTED_EDGE('',*,*,#83,.F.);
#98=ORIENTED_EDGE('',*,*,#82,.T.);
#99=ORIENTED_EDGE('',*,*,#83,.T.);
#100=ORIENTED_EDGE('',*,*,#84,.F.);
#101=ORIENTED_EDGE('',*,*,#77,.F.);
#102=ORIENTED_EDGE('',*,*,#84,.T.);
#103=TOROIDAL_SURFACE('',#124,42.85,2.0000000000001);
#104=TOROIDAL_SURFACE('',#129,43.85,1.);
#105=TOROIDAL_SURFACE('',#135,40.9806494285588,2.37716261244083);
#106=ADVANCED_FACE('',(#30,#22),#103,.T.);
#107=ADVANCED_FACE('',(#31,#23),#20,.T.);
#108=ADVANCED_FACE('',(#32,#24),#104,.T.);
#109=ADVANCED_FACE('',(#33,#25),#19,.T.);
#110=ADVANCED_FACE('',(#34,#26),#21,.F.);
#111=ADVANCED_FACE('',(#35,#27),#105,.F.);
#112=ADVANCED_FACE('',(#36,#28),#17,.F.);
#113=ADVANCED_FACE('',(#37),#15,.F.);
#114=ADVANCED_FACE('',(#38),#16,.T.);
#115=ADVANCED_FACE('',(#39,#29),#18,.T.);
#116=CLOSED_SHELL('',(#106,#107,#108,#109,#110,#111,#112,#113,#114,#115));
#117=DATE_TIME_ROLE('creation_date');
#118=APPLIED_DATE_AND_TIME_ASSIGNMENT(#119,#117,(#226));
#119=DATE_AND_TIME(#120,#121);
#120=CALENDAR_DATE(2021,3,3);
#121=LOCAL_TIME(23,0,0.,#122);
#122=COORDINATED_UNIVERSAL_TIME_OFFSET(0,0,.BEHIND.);
#123=AXIS2_PLACEMENT_3D('placement',#183,#143,#144);
#124=AXIS2_PLACEMENT_3D('',#184,#145,#146);
#125=AXIS2_PLACEMENT_3D('',#186,#147,#148);
#126=AXIS2_PLACEMENT_3D('',#188,#149,#150);
#127=AXIS2_PLACEMENT_3D('',#189,#151,#152);
#128=AXIS2_PLACEMENT_3D('',#191,#153,#154);
#129=AXIS2_PLACEMENT_3D('',#192,#155,#156);
#130=AXIS2_PLACEMENT_3D('',#194,#157,#158);
#131=AXIS2_PLACEMENT_3D('',#195,#159,#160);
#132=AXIS2_PLACEMENT_3D('',#197,#161,#162);
#133=AXIS2_PLACEMENT_3D('',#198,#163,#164);
#134=AXIS2_PLACEMENT_3D('',#200,#165,#166);
#135=AXIS2_PLACEMENT_3D('',#201,#167,#168);
#136=AXIS2_PLACEMENT_3D('',#203,#169,#170);
#137=AXIS2_PLACEMENT_3D('',#204,#171,#172);
#138=AXIS2_PLACEMENT_3D('',#206,#173,#174);
#139=AXIS2_PLACEMENT_3D('',#207,#175,#176);
#140=AXIS2_PLACEMENT_3D('',#208,#177,#178);
#141=AXIS2_PLACEMENT_3D('',#210,#179,#180);
#142=AXIS2_PLACEMENT_3D('',#211,#181,#182);
#143=DIRECTION('axis',(0.,0.,1.));
#144=DIRECTION('refdir',(1.,0.,0.));
#145=DIRECTION('center_axis',(1.,3.78175152805162E-16,0.));
#146=DIRECTION('ref_axis',(0.,0.,-1.));
#147=DIRECTION('center_axis',(1.,3.78175152805162E-16,0.));
#148=DIRECTION('ref_axis',(0.,0.,-1.));
#149=DIRECTION('center_axis',(1.,3.78175152805162E-16,0.));
#150=DIRECTION('ref_axis',(0.,0.,-1.));
#151=DIRECTION('center_axis',(1.,3.78175152805162E-16,0.));
#152=DIRECTION('ref_axis',(0.,1.,0.));
#153=DIRECTION('center_axis',(1.,3.78175152805162E-16,0.));
#154=DIRECTION('ref_axis',(0.,0.,-1.));
#155=DIRECTION('center_axis',(1.,3.78175152805162E-16,0.));
#156=DIRECTION('ref_axis',(0.,0.,-1.));
#157=DIRECTION('center_axis',(1.,3.78175152805162E-16,0.));
#158=DIRECTION('ref_axis',(0.,0.,-1.));
#159=DIRECTION('center_axis',(1.,3.78175152805162E-16,0.));
#160=DIRECTION('ref_axis',(0.,0.,-1.));
#161=DIRECTION('center_axis',(1.,3.78175152805162E-16,0.));
#162=DIRECTION('ref_axis',(0.,0.,-1.));
#163=DIRECTION('center_axis',(1.,3.78175152805162E-16,0.));
#164=DIRECTION('ref_axis',(0.,1.,0.));
#165=DIRECTION('center_axis',(1.,3.78175152805162E-16,0.));
#166=DIRECTION('ref_axis',(0.,0.,-1.));
#167=DIRECTION('center_axis',(1.,3.78175152805162E-16,0.));
#168=DIRECTION('ref_axis',(0.,0.,-1.));
#169=DIRECTION('center_axis',(1.,3.78175152805162E-16,0.));
#170=DIRECTION('ref_axis',(0.,0.,-1.));
#171=DIRECTION('center_axis',(1.,3.78175152805162E-16,0.));
#172=DIRECTION('ref_axis',(0.,1.,0.));
#173=DIRECTION('center_axis',(1.,3.78175152805162E-16,0.));
#174=DIRECTION('ref_axis',(0.,0.,-1.));
#175=DIRECTION('center_axis',(0.,0.,1.));
#176=DIRECTION('ref_axis',(1.,0.,0.));
#177=DIRECTION('center_axis',(0.,0.,1.));
#178=DIRECTION('ref_axis',(1.,0.,0.));
#179=DIRECTION('center_axis',(1.,3.78175152805162E-16,0.));
#180=DIRECTION('ref_axis',(0.,0.,-1.));
#181=DIRECTION('center_axis',(1.,3.78175152805162E-16,0.));
#182=DIRECTION('ref_axis',(0.,1.,0.));
#183=CARTESIAN_POINT('',(0.,0.,0.));
#184=CARTESIAN_POINT('Origin',(-91.2350876218696,-3.45028432025929E-14,
0.));
#185=CARTESIAN_POINT('',(-91.2350876218697,44.85,0.));
#186=CARTESIAN_POINT('Origin',(-91.2350876218696,-3.45028432025929E-14,
0.));
#187=CARTESIAN_POINT('',(-92.4688361116767,44.4241234589125,0.));
#188=CARTESIAN_POINT('Origin',(-92.4688361116767,-3.49694162262488E-14,
0.));
#189=CARTESIAN_POINT('Origin',(-46.1175438109348,-1.7440509177699E-14,0.));
#190=CARTESIAN_POINT('',(-1.,44.85,0.));
#191=CARTESIAN_POINT('Origin',(-0.999999999999979,-3.78175152805157E-16,
0.));
#192=CARTESIAN_POINT('Origin',(-0.999999999999979,-3.78175152805157E-16,
0.));
#193=CARTESIAN_POINT('',(0.,43.85,0.));
#194=CARTESIAN_POINT('Origin',(1.77635683940025E-14,7.88860905221012E-30,
0.));
#195=CARTESIAN_POINT('Origin',(0.,43.35,0.));
#196=CARTESIAN_POINT('',(-5.54667823983611E-33,43.35,0.));
#197=CARTESIAN_POINT('Origin',(1.77635683940025E-14,7.88860905221012E-30,
0.));
#198=CARTESIAN_POINT('Origin',(-45.3848693786433,-1.71634299123108E-14,
0.));
#199=CARTESIAN_POINT('',(-90.7697387572867,43.35,0.));
#200=CARTESIAN_POINT('Origin',(-90.7697387572867,-3.43268598246215E-14,
0.));
#201=CARTESIAN_POINT('Origin',(-90.5771771941501,-3.42540378260579E-14,
0.));
#202=CARTESIAN_POINT('',(-92.0513110874018,42.8455438895814,0.));
#203=CARTESIAN_POINT('Origin',(-92.0513110874018,-3.48115186363937E-14,
0.));
#204=CARTESIAN_POINT('Origin',(-119.208608536559,-4.50817337490039E-14,
0.));
#205=CARTESIAN_POINT('',(-146.365905985716,0.275471605309645,0.));
#206=CARTESIAN_POINT('Origin',(-146.365905985716,-5.53519488616142E-14,
0.));
#207=CARTESIAN_POINT('Origin',(-146.15,-4.47455324238464E-14,0.));
#208=CARTESIAN_POINT('Origin',(-146.15,-4.47455324238464E-14,0.));
#209=CARTESIAN_POINT('',(-147.291217353071,1.45606419949407,0.));
#210=CARTESIAN_POINT('Origin',(-147.291217353071,-5.57018786293561E-14,
0.));
#211=CARTESIAN_POINT('Origin',(-119.880026732374,-4.53356474278025E-14,
0.));
#212=UNCERTAINTY_MEASURE_WITH_UNIT(LENGTH_MEASURE(0.01),#216,
'DISTANCE_ACCURACY_VALUE',
'Maximum model space distance between geometric entities at asserted c
onnectivities');
#213=UNCERTAINTY_MEASURE_WITH_UNIT(LENGTH_MEASURE(1.E-6),#216,
'DISTANCE_ACCURACY_VALUE',
'Maximum model space distance between geometric entities at asserted c
onnectivities');
#214=(
GEOMETRIC_REPRESENTATION_CONTEXT(3)
GLOBAL_UNCERTAINTY_ASSIGNED_CONTEXT((#212))
GLOBAL_UNIT_ASSIGNED_CONTEXT((#216,#219,#217))
REPRESENTATION_CONTEXT('','3D')
);
#215=(
GEOMETRIC_REPRESENTATION_CONTEXT(3)
GLOBAL_UNCERTAINTY_ASSIGNED_CONTEXT((#213))
GLOBAL_UNIT_ASSIGNED_CONTEXT((#216,#219,#217))
REPRESENTATION_CONTEXT('','3D')
);
#216=(
LENGTH_UNIT()
NAMED_UNIT(*)
SI_UNIT(.MILLI.,.METRE.)
);
#217=(
NAMED_UNIT(*)
SI_UNIT($,.STERADIAN.)
SOLID_ANGLE_UNIT()
);
#218=DIMENSIONAL_EXPONENTS(0.,0.,0.,0.,0.,0.,0.);
#219=(
CONVERSION_BASED_UNIT('degree',#221)
NAMED_UNIT(#218)
PLANE_ANGLE_UNIT()
);
#220=(
NAMED_UNIT(*)
PLANE_ANGLE_UNIT()
SI_UNIT($,.RADIAN.)
);
#221=PLANE_ANGLE_MEASURE_WITH_UNIT(PLANE_ANGLE_MEASURE(0.01745329252),#220);
#222=SHAPE_DEFINITION_REPRESENTATION(#223,#224);
#223=PRODUCT_DEFINITION_SHAPE('',$,#226);
#224=SHAPE_REPRESENTATION('',(#123),#214);
#225=PRODUCT_DEFINITION_CONTEXT('part definition',#230,'design');
#226=PRODUCT_DEFINITION('SHG90PVC','Schutzkappe-01-BT-0001-SHG90PVC',#227,
#225);
#227=PRODUCT_DEFINITION_FORMATION('',$,#232);
#228=PRODUCT_RELATED_PRODUCT_CATEGORY('Schutzkappe-01-BT-0001-SHG90PVC',
'Schutzkappe-01-BT-0001-SHG90PVC',(#232));
#229=APPLICATION_PROTOCOL_DEFINITION('international standard',
'automotive_design',2009,#230);
#230=APPLICATION_CONTEXT(
'Core Data for Automotive Mechanical Design Process');
#231=PRODUCT_CONTEXT('part definition',#230,'mechanical');
#232=PRODUCT('SHG90PVC','Schutzkappe-01-BT-0001-SHG90PVC','Schutzkappe',
(#231));
#233=PRESENTATION_STYLE_ASSIGNMENT((#234));
#234=SURFACE_STYLE_USAGE(.BOTH.,#235);
#235=SURFACE_SIDE_STYLE('',(#236));
#236=SURFACE_STYLE_FILL_AREA(#237);
#237=FILL_AREA_STYLE('',(#238));
#238=FILL_AREA_STYLE_COLOUR('',#239);
#239=COLOUR_RGB('',0.250980392156863,0.250980392156863,0.250980392156863);
ENDSEC;
END-ISO-10303-21;
