ISO-10303-21;
HEADER;
/* Generated by software containing ST-Developer
 * from STEP Tools, Inc. (www.steptools.com) 
 */

FILE_DESCRIPTION(
/* description */ ('Dop-Dichteinsatz f\X\FCr Euro-Top'),
/* implementation_level */ '2;1');

FILE_NAME(
/* name */ 
'Y:\\Produkte\\Produktdaten_Produktdarstellungen\\Produktdarstellungen
_Bilder-3DModelle-etc\\3D-Modelle\\Kundenversionen\\Bimed\\RST-SL\\Dop
peldichteinsatz\\00180448MDS-RST.stp',
/* time_stamp */ '2023-08-28T11:24:37+02:00',
/* author */ ('sl'),
/* organization */ (''),
/* preprocessor_version */ 'ST-DEVELOPER v16.5',
/* originating_system */ 'Autodesk Inventor 2017',
/* authorisation */ '');

FILE_SCHEMA (('AUTOMOTIVE_DESIGN { 1 0 10303 214 3 1 1 }'));
ENDSEC;

DATA;
#10=MECHANICAL_DESIGN_GEOMETRIC_PRESENTATION_REPRESENTATION('',(#20,#24,
#23,#21,#22,#25,#28,#27,#26),#239);
#11=SHAPE_REPRESENTATION_RELATIONSHIP('SRR','None',#248,#12);
#12=ADVANCED_BREP_SHAPE_REPRESENTATION('',(#13,#14),#238);
#13=MANIFOLD_SOLID_BREP('Volumenk\X\F6rper1',#134);
#14=MANIFOLD_SOLID_BREP('Volumenk\X\F6rper1',#135);
#15=CYLINDRICAL_SURFACE('',#146,25.5);
#16=CYLINDRICAL_SURFACE('',#150,17.1);
#17=CYLINDRICAL_SURFACE('',#152,22.);
#18=CYLINDRICAL_SURFACE('',#155,22.1);
#19=CYLINDRICAL_SURFACE('',#158,25.5);
#20=STYLED_ITEM('',(#258),#125);
#21=STYLED_ITEM('',(#258),#127);
#22=STYLED_ITEM('',(#258),#128);
#23=STYLED_ITEM('',(#258),#129);
#24=STYLED_ITEM('',(#259),#130);
#25=STYLED_ITEM('',(#259),#131);
#26=STYLED_ITEM('',(#259),#132);
#27=STYLED_ITEM('',(#257),#13);
#28=STYLED_ITEM('',(#257),#14);
#29=FACE_BOUND('',#50,.T.);
#30=FACE_BOUND('',#52,.T.);
#31=FACE_BOUND('',#54,.T.);
#32=FACE_BOUND('',#56,.T.);
#33=FACE_BOUND('',#58,.T.);
#34=FACE_BOUND('',#60,.T.);
#35=FACE_BOUND('',#62,.T.);
#36=FACE_BOUND('',#64,.T.);
#37=FACE_BOUND('',#66,.T.);
#38=FACE_BOUND('',#68,.T.);
#39=FACE_OUTER_BOUND('',#49,.T.);
#40=FACE_OUTER_BOUND('',#51,.T.);
#41=FACE_OUTER_BOUND('',#53,.T.);
#42=FACE_OUTER_BOUND('',#55,.T.);
#43=FACE_OUTER_BOUND('',#57,.T.);
#44=FACE_OUTER_BOUND('',#59,.T.);
#45=FACE_OUTER_BOUND('',#61,.T.);
#46=FACE_OUTER_BOUND('',#63,.T.);
#47=FACE_OUTER_BOUND('',#65,.T.);
#48=FACE_OUTER_BOUND('',#67,.T.);
#49=EDGE_LOOP('',(#99));
#50=EDGE_LOOP('',(#100));
#51=EDGE_LOOP('',(#101));
#52=EDGE_LOOP('',(#102));
#53=EDGE_LOOP('',(#103));
#54=EDGE_LOOP('',(#104));
#55=EDGE_LOOP('',(#105));
#56=EDGE_LOOP('',(#106));
#57=EDGE_LOOP('',(#107));
#58=EDGE_LOOP('',(#108));
#59=EDGE_LOOP('',(#109));
#60=EDGE_LOOP('',(#110));
#61=EDGE_LOOP('',(#111));
#62=EDGE_LOOP('',(#112));
#63=EDGE_LOOP('',(#113));
#64=EDGE_LOOP('',(#114));
#65=EDGE_LOOP('',(#115));
#66=EDGE_LOOP('',(#116));
#67=EDGE_LOOP('',(#117));
#68=EDGE_LOOP('',(#118));
#69=CIRCLE('',#144,25.5);
#70=CIRCLE('',#145,22.);
#71=CIRCLE('',#147,25.5);
#72=CIRCLE('',#149,17.1);
#73=CIRCLE('',#151,17.1);
#74=CIRCLE('',#153,22.);
#75=CIRCLE('',#156,22.1);
#76=CIRCLE('',#157,22.1);
#77=CIRCLE('',#159,25.5);
#78=CIRCLE('',#160,25.5);
#79=VERTEX_POINT('',#207);
#80=VERTEX_POINT('',#209);
#81=VERTEX_POINT('',#212);
#82=VERTEX_POINT('',#215);
#83=VERTEX_POINT('',#218);
#84=VERTEX_POINT('',#221);
#85=VERTEX_POINT('',#225);
#86=VERTEX_POINT('',#227);
#87=VERTEX_POINT('',#230);
#88=VERTEX_POINT('',#232);
#89=EDGE_CURVE('',#79,#79,#69,.T.);
#90=EDGE_CURVE('',#80,#80,#70,.T.);
#91=EDGE_CURVE('',#81,#81,#71,.T.);
#92=EDGE_CURVE('',#82,#82,#72,.T.);
#93=EDGE_CURVE('',#83,#83,#73,.T.);
#94=EDGE_CURVE('',#84,#84,#74,.T.);
#95=EDGE_CURVE('',#85,#85,#75,.T.);
#96=EDGE_CURVE('',#86,#86,#76,.T.);
#97=EDGE_CURVE('',#87,#87,#77,.T.);
#98=EDGE_CURVE('',#88,#88,#78,.T.);
#99=ORIENTED_EDGE('',*,*,#89,.T.);
#100=ORIENTED_EDGE('',*,*,#90,.F.);
#101=ORIENTED_EDGE('',*,*,#91,.F.);
#102=ORIENTED_EDGE('',*,*,#89,.F.);
#103=ORIENTED_EDGE('',*,*,#91,.T.);
#104=ORIENTED_EDGE('',*,*,#92,.T.);
#105=ORIENTED_EDGE('',*,*,#92,.F.);
#106=ORIENTED_EDGE('',*,*,#93,.F.);
#107=ORIENTED_EDGE('',*,*,#94,.F.);
#108=ORIENTED_EDGE('',*,*,#90,.T.);
#109=ORIENTED_EDGE('',*,*,#94,.T.);
#110=ORIENTED_EDGE('',*,*,#93,.T.);
#111=ORIENTED_EDGE('',*,*,#95,.F.);
#112=ORIENTED_EDGE('',*,*,#96,.F.);
#113=ORIENTED_EDGE('',*,*,#97,.F.);
#114=ORIENTED_EDGE('',*,*,#98,.F.);
#115=ORIENTED_EDGE('',*,*,#98,.T.);
#116=ORIENTED_EDGE('',*,*,#96,.T.);
#117=ORIENTED_EDGE('',*,*,#97,.T.);
#118=ORIENTED_EDGE('',*,*,#95,.T.);
#119=PLANE('',#143);
#120=PLANE('',#148);
#121=PLANE('',#154);
#122=PLANE('',#161);
#123=PLANE('',#162);
#124=ADVANCED_FACE('',(#39,#29),#119,.F.);
#125=ADVANCED_FACE('',(#40,#30),#15,.T.);
#126=ADVANCED_FACE('',(#41,#31),#120,.T.);
#127=ADVANCED_FACE('',(#42,#32),#16,.F.);
#128=ADVANCED_FACE('',(#43,#33),#17,.T.);
#129=ADVANCED_FACE('',(#44,#34),#121,.F.);
#130=ADVANCED_FACE('',(#45,#35),#18,.F.);
#131=ADVANCED_FACE('',(#46,#36),#19,.T.);
#132=ADVANCED_FACE('',(#47,#37),#122,.F.);
#133=ADVANCED_FACE('',(#48,#38),#123,.T.);
#134=CLOSED_SHELL('',(#124,#125,#126,#127,#128,#129));
#135=CLOSED_SHELL('',(#130,#131,#132,#133));
#136=DATE_TIME_ROLE('creation_date');
#137=APPLIED_DATE_AND_TIME_ASSIGNMENT(#138,#136,(#250));
#138=DATE_AND_TIME(#139,#140);
#139=CALENDAR_DATE(2023,27,8);
#140=LOCAL_TIME(22,0,0.,#141);
#141=COORDINATED_UNIVERSAL_TIME_OFFSET(0,0,.BEHIND.);
#142=AXIS2_PLACEMENT_3D('placement',#205,#163,#164);
#143=AXIS2_PLACEMENT_3D('',#206,#165,#166);
#144=AXIS2_PLACEMENT_3D('',#208,#167,#168);
#145=AXIS2_PLACEMENT_3D('',#210,#169,#170);
#146=AXIS2_PLACEMENT_3D('',#211,#171,#172);
#147=AXIS2_PLACEMENT_3D('',#213,#173,#174);
#148=AXIS2_PLACEMENT_3D('',#214,#175,#176);
#149=AXIS2_PLACEMENT_3D('',#216,#177,#178);
#150=AXIS2_PLACEMENT_3D('',#217,#179,#180);
#151=AXIS2_PLACEMENT_3D('',#219,#181,#182);
#152=AXIS2_PLACEMENT_3D('',#220,#183,#184);
#153=AXIS2_PLACEMENT_3D('',#222,#185,#186);
#154=AXIS2_PLACEMENT_3D('',#223,#187,#188);
#155=AXIS2_PLACEMENT_3D('',#224,#189,#190);
#156=AXIS2_PLACEMENT_3D('',#226,#191,#192);
#157=AXIS2_PLACEMENT_3D('',#228,#193,#194);
#158=AXIS2_PLACEMENT_3D('',#229,#195,#196);
#159=AXIS2_PLACEMENT_3D('',#231,#197,#198);
#160=AXIS2_PLACEMENT_3D('',#233,#199,#200);
#161=AXIS2_PLACEMENT_3D('',#234,#201,#202);
#162=AXIS2_PLACEMENT_3D('',#235,#203,#204);
#163=DIRECTION('axis',(0.,0.,1.));
#164=DIRECTION('refdir',(1.,0.,0.));
#165=DIRECTION('center_axis',(0.,0.,1.));
#166=DIRECTION('ref_axis',(1.,0.,0.));
#167=DIRECTION('center_axis',(0.,0.,-1.));
#168=DIRECTION('ref_axis',(-1.,0.,0.));
#169=DIRECTION('center_axis',(0.,0.,-1.));
#170=DIRECTION('ref_axis',(-1.,0.,0.));
#171=DIRECTION('center_axis',(0.,0.,1.));
#172=DIRECTION('ref_axis',(-1.,0.,0.));
#173=DIRECTION('center_axis',(0.,0.,1.));
#174=DIRECTION('ref_axis',(-1.,0.,0.));
#175=DIRECTION('center_axis',(0.,0.,1.));
#176=DIRECTION('ref_axis',(1.,0.,0.));
#177=DIRECTION('center_axis',(0.,0.,-1.));
#178=DIRECTION('ref_axis',(-1.,0.,0.));
#179=DIRECTION('center_axis',(0.,0.,-1.));
#180=DIRECTION('ref_axis',(-1.,0.,0.));
#181=DIRECTION('center_axis',(0.,0.,1.));
#182=DIRECTION('ref_axis',(-1.,0.,0.));
#183=DIRECTION('center_axis',(0.,0.,-1.));
#184=DIRECTION('ref_axis',(-1.,0.,0.));
#185=DIRECTION('center_axis',(0.,0.,-1.));
#186=DIRECTION('ref_axis',(-1.,0.,0.));
#187=DIRECTION('center_axis',(0.,0.,1.));
#188=DIRECTION('ref_axis',(1.,0.,0.));
#189=DIRECTION('center_axis',(0.,0.,1.));
#190=DIRECTION('ref_axis',(-1.,0.,0.));
#191=DIRECTION('center_axis',(0.,0.,-1.));
#192=DIRECTION('ref_axis',(-1.,0.,0.));
#193=DIRECTION('center_axis',(0.,0.,1.));
#194=DIRECTION('ref_axis',(-1.,0.,0.));
#195=DIRECTION('center_axis',(0.,0.,1.));
#196=DIRECTION('ref_axis',(-1.,0.,0.));
#197=DIRECTION('center_axis',(0.,0.,1.));
#198=DIRECTION('ref_axis',(-1.,0.,0.));
#199=DIRECTION('center_axis',(0.,0.,-1.));
#200=DIRECTION('ref_axis',(-1.,0.,0.));
#201=DIRECTION('center_axis',(0.,0.,1.));
#202=DIRECTION('ref_axis',(1.,0.,0.));
#203=DIRECTION('center_axis',(0.,0.,1.));
#204=DIRECTION('ref_axis',(1.,0.,0.));
#205=CARTESIAN_POINT('',(0.,0.,0.));
#206=CARTESIAN_POINT('Origin',(-1.42125498691048E-15,0.,18.501));
#207=CARTESIAN_POINT('',(25.5,3.12284933782575E-15,18.501));
#208=CARTESIAN_POINT('Origin',(0.,0.,18.501));
#209=CARTESIAN_POINT('',(22.,2.69422295812418E-15,18.501));
#210=CARTESIAN_POINT('Origin',(0.,0.,18.501));
#211=CARTESIAN_POINT('Origin',(0.,0.,18.501));
#212=CARTESIAN_POINT('',(25.5,3.12284933782575E-15,21.501));
#213=CARTESIAN_POINT('Origin',(0.,0.,21.501));
#214=CARTESIAN_POINT('Origin',(-1.42125498691048E-15,0.,21.501));
#215=CARTESIAN_POINT('',(17.1,2.09414602654197E-15,21.501));
#216=CARTESIAN_POINT('Origin',(0.,0.,21.501));
#217=CARTESIAN_POINT('Origin',(0.,0.,18.501));
#218=CARTESIAN_POINT('',(17.1,2.09414602654197E-15,0.00099999999999989));
#219=CARTESIAN_POINT('Origin',(0.,0.,0.00100000000000211));
#220=CARTESIAN_POINT('Origin',(0.,0.,18.501));
#221=CARTESIAN_POINT('',(22.,2.69422295812418E-15,0.00099999999999989));
#222=CARTESIAN_POINT('Origin',(0.,0.,0.00099999999999989));
#223=CARTESIAN_POINT('Origin',(-8.97381019010443E-16,0.,0.00100000000000211));
#224=CARTESIAN_POINT('Origin',(0.,0.,0.));
#225=CARTESIAN_POINT('',(22.1,2.70646942611565E-15,18.5));
#226=CARTESIAN_POINT('Origin',(0.,0.,18.5));
#227=CARTESIAN_POINT('',(22.1,2.70646942611565E-15,0.));
#228=CARTESIAN_POINT('Origin',(0.,0.,0.));
#229=CARTESIAN_POINT('Origin',(0.,0.,0.));
#230=CARTESIAN_POINT('',(25.5,3.12284933782575E-15,18.5));
#231=CARTESIAN_POINT('Origin',(0.,0.,18.5));
#232=CARTESIAN_POINT('',(25.5,3.12284933782575E-15,0.));
#233=CARTESIAN_POINT('Origin',(0.,0.,0.));
#234=CARTESIAN_POINT('Origin',(-1.42125498691048E-15,0.,0.));
#235=CARTESIAN_POINT('Origin',(-1.42125498691048E-15,0.,18.5));
#236=UNCERTAINTY_MEASURE_WITH_UNIT(LENGTH_MEASURE(0.01),#240,
'DISTANCE_ACCURACY_VALUE',
'Maximum model space distance between geometric entities at asserted c
onnectivities');
#237=UNCERTAINTY_MEASURE_WITH_UNIT(LENGTH_MEASURE(1.E-6),#240,
'DISTANCE_ACCURACY_VALUE',
'Maximum model space distance between geometric entities at asserted c
onnectivities');
#238=(
GEOMETRIC_REPRESENTATION_CONTEXT(3)
GLOBAL_UNCERTAINTY_ASSIGNED_CONTEXT((#236))
GLOBAL_UNIT_ASSIGNED_CONTEXT((#240,#243,#241))
REPRESENTATION_CONTEXT('','3D')
);
#239=(
GEOMETRIC_REPRESENTATION_CONTEXT(3)
GLOBAL_UNCERTAINTY_ASSIGNED_CONTEXT((#237))
GLOBAL_UNIT_ASSIGNED_CONTEXT((#240,#243,#241))
REPRESENTATION_CONTEXT('','3D')
);
#240=(
LENGTH_UNIT()
NAMED_UNIT(*)
SI_UNIT(.MILLI.,.METRE.)
);
#241=(
NAMED_UNIT(*)
SI_UNIT($,.STERADIAN.)
SOLID_ANGLE_UNIT()
);
#242=DIMENSIONAL_EXPONENTS(0.,0.,0.,0.,0.,0.,0.);
#243=(
CONVERSION_BASED_UNIT('degree',#245)
NAMED_UNIT(#242)
PLANE_ANGLE_UNIT()
);
#244=(
NAMED_UNIT(*)
PLANE_ANGLE_UNIT()
SI_UNIT($,.RADIAN.)
);
#245=PLANE_ANGLE_MEASURE_WITH_UNIT(PLANE_ANGLE_MEASURE(0.01745329252),#244);
#246=SHAPE_DEFINITION_REPRESENTATION(#247,#248);
#247=PRODUCT_DEFINITION_SHAPE('',$,#250);
#248=SHAPE_REPRESENTATION('',(#142),#238);
#249=PRODUCT_DEFINITION_CONTEXT('part definition',#254,'design');
#250=PRODUCT_DEFINITION('00180448MDS',
'Dop-Dichteinsatz-02-BT-0001-00180448MDS',#251,#249);
#251=PRODUCT_DEFINITION_FORMATION('',$,#256);
#252=PRODUCT_RELATED_PRODUCT_CATEGORY(
'Dop-Dichteinsatz-02-BT-0001-00180448MDS',
'Dop-Dichteinsatz-02-BT-0001-00180448MDS',(#256));
#253=APPLICATION_PROTOCOL_DEFINITION('international standard',
'automotive_design',2009,#254);
#254=APPLICATION_CONTEXT(
'Core Data for Automotive Mechanical Design Process');
#255=PRODUCT_CONTEXT('part definition',#254,'mechanical');
#256=PRODUCT('00180448MDS','Dop-Dichteinsatz-02-BT-0001-00180448MDS',
'Dop-Dichteinsatz f\X\FCr Euro-Top',(#255));
#257=PRESENTATION_STYLE_ASSIGNMENT((#260));
#258=PRESENTATION_STYLE_ASSIGNMENT((#261));
#259=PRESENTATION_STYLE_ASSIGNMENT((#262));
#260=SURFACE_STYLE_USAGE(.BOTH.,#263);
#261=SURFACE_STYLE_USAGE(.BOTH.,#264);
#262=SURFACE_STYLE_USAGE(.BOTH.,#265);
#263=SURFACE_SIDE_STYLE('',(#266));
#264=SURFACE_SIDE_STYLE('',(#267));
#265=SURFACE_SIDE_STYLE('',(#268));
#266=SURFACE_STYLE_FILL_AREA(#269);
#267=SURFACE_STYLE_FILL_AREA(#270);
#268=SURFACE_STYLE_FILL_AREA(#271);
#269=FILL_AREA_STYLE('',(#272));
#270=FILL_AREA_STYLE('',(#273));
#271=FILL_AREA_STYLE('',(#274));
#272=FILL_AREA_STYLE_COLOUR('',#275);
#273=FILL_AREA_STYLE_COLOUR('',#276);
#274=FILL_AREA_STYLE_COLOUR('',#277);
#275=COLOUR_RGB('',0.250980392156863,0.250980392156863,0.250980392156863);
#276=COLOUR_RGB('',0.6,0.6,0.6);
#277=COLOUR_RGB('',0.250980392156863,0.250980392156863,0.250980392156863);
ENDSEC;
END-ISO-10303-21;
