ISO-10303-21;
HEADER;
/* Generated by software containing ST-Developer
 * from STEP Tools, Inc. (www.steptools.com) 
 */

FILE_DESCRIPTION(
/* description */ ('Dop-Dichteinsatz f\X\FCr Euro-Top MS'),
/* implementation_level */ '2;1');

FILE_NAME(
/* name */ 
'Y:\\Produkte\\Produktdaten_Produktdarstellungen\\Produktdarstellungen
_Bilder-3DModelle-etc\\3D-Modelle\\Kundenversionen\\Bimed\\RST-SL\\Dop
peldichteinsatz\\00184532MDS-RST.stp',
/* time_stamp */ '2023-08-28T11:07:37+02:00',
/* author */ ('sl'),
/* organization */ (''),
/* preprocessor_version */ 'ST-DEVELOPER v16.5',
/* originating_system */ 'Autodesk Inventor 2017',
/* authorisation */ '');

FILE_SCHEMA (('AUTOMOTIVE_DESIGN { 1 0 10303 214 3 1 1 }'));
ENDSEC;

DATA;
#10=MECHANICAL_DESIGN_GEOMETRIC_PRESENTATION_REPRESENTATION('',(#21,#20,
#27,#28,#29,#24,#22,#23,#25,#26),#240);
#11=SHAPE_REPRESENTATION_RELATIONSHIP('SRR','None',#249,#12);
#12=ADVANCED_BREP_SHAPE_REPRESENTATION('',(#13,#14),#239);
#13=MANIFOLD_SOLID_BREP('Volumenk\X\F6rper1',#135);
#14=MANIFOLD_SOLID_BREP('Volumenk\X\F6rper1',#136);
#15=CYLINDRICAL_SURFACE('',#147,12.6);
#16=CYLINDRICAL_SURFACE('',#151,7.5);
#17=CYLINDRICAL_SURFACE('',#153,10.45);
#18=CYLINDRICAL_SURFACE('',#156,10.5);
#19=CYLINDRICAL_SURFACE('',#159,12.6);
#20=STYLED_ITEM('',(#259),#126);
#21=STYLED_ITEM('',(#259),#127);
#22=STYLED_ITEM('',(#259),#128);
#23=STYLED_ITEM('',(#259),#129);
#24=STYLED_ITEM('',(#259),#130);
#25=STYLED_ITEM('',(#260),#131);
#26=STYLED_ITEM('',(#260),#132);
#27=STYLED_ITEM('',(#260),#133);
#28=STYLED_ITEM('',(#258),#13);
#29=STYLED_ITEM('',(#258),#14);
#30=FACE_BOUND('',#51,.T.);
#31=FACE_BOUND('',#53,.T.);
#32=FACE_BOUND('',#55,.T.);
#33=FACE_BOUND('',#57,.T.);
#34=FACE_BOUND('',#59,.T.);
#35=FACE_BOUND('',#61,.T.);
#36=FACE_BOUND('',#63,.T.);
#37=FACE_BOUND('',#65,.T.);
#38=FACE_BOUND('',#67,.T.);
#39=FACE_BOUND('',#69,.T.);
#40=FACE_OUTER_BOUND('',#50,.T.);
#41=FACE_OUTER_BOUND('',#52,.T.);
#42=FACE_OUTER_BOUND('',#54,.T.);
#43=FACE_OUTER_BOUND('',#56,.T.);
#44=FACE_OUTER_BOUND('',#58,.T.);
#45=FACE_OUTER_BOUND('',#60,.T.);
#46=FACE_OUTER_BOUND('',#62,.T.);
#47=FACE_OUTER_BOUND('',#64,.T.);
#48=FACE_OUTER_BOUND('',#66,.T.);
#49=FACE_OUTER_BOUND('',#68,.T.);
#50=EDGE_LOOP('',(#100));
#51=EDGE_LOOP('',(#101));
#52=EDGE_LOOP('',(#102));
#53=EDGE_LOOP('',(#103));
#54=EDGE_LOOP('',(#104));
#55=EDGE_LOOP('',(#105));
#56=EDGE_LOOP('',(#106));
#57=EDGE_LOOP('',(#107));
#58=EDGE_LOOP('',(#108));
#59=EDGE_LOOP('',(#109));
#60=EDGE_LOOP('',(#110));
#61=EDGE_LOOP('',(#111));
#62=EDGE_LOOP('',(#112));
#63=EDGE_LOOP('',(#113));
#64=EDGE_LOOP('',(#114));
#65=EDGE_LOOP('',(#115));
#66=EDGE_LOOP('',(#116));
#67=EDGE_LOOP('',(#117));
#68=EDGE_LOOP('',(#118));
#69=EDGE_LOOP('',(#119));
#70=CIRCLE('',#145,12.6);
#71=CIRCLE('',#146,10.45);
#72=CIRCLE('',#148,12.6);
#73=CIRCLE('',#150,7.5);
#74=CIRCLE('',#152,7.5);
#75=CIRCLE('',#154,10.45);
#76=CIRCLE('',#157,10.5);
#77=CIRCLE('',#158,10.5);
#78=CIRCLE('',#160,12.6);
#79=CIRCLE('',#161,12.6);
#80=VERTEX_POINT('',#208);
#81=VERTEX_POINT('',#210);
#82=VERTEX_POINT('',#213);
#83=VERTEX_POINT('',#216);
#84=VERTEX_POINT('',#219);
#85=VERTEX_POINT('',#222);
#86=VERTEX_POINT('',#226);
#87=VERTEX_POINT('',#228);
#88=VERTEX_POINT('',#231);
#89=VERTEX_POINT('',#233);
#90=EDGE_CURVE('',#80,#80,#70,.T.);
#91=EDGE_CURVE('',#81,#81,#71,.T.);
#92=EDGE_CURVE('',#82,#82,#72,.T.);
#93=EDGE_CURVE('',#83,#83,#73,.T.);
#94=EDGE_CURVE('',#84,#84,#74,.T.);
#95=EDGE_CURVE('',#85,#85,#75,.T.);
#96=EDGE_CURVE('',#86,#86,#76,.T.);
#97=EDGE_CURVE('',#87,#87,#77,.T.);
#98=EDGE_CURVE('',#88,#88,#78,.T.);
#99=EDGE_CURVE('',#89,#89,#79,.T.);
#100=ORIENTED_EDGE('',*,*,#90,.T.);
#101=ORIENTED_EDGE('',*,*,#91,.F.);
#102=ORIENTED_EDGE('',*,*,#92,.F.);
#103=ORIENTED_EDGE('',*,*,#90,.F.);
#104=ORIENTED_EDGE('',*,*,#92,.T.);
#105=ORIENTED_EDGE('',*,*,#93,.T.);
#106=ORIENTED_EDGE('',*,*,#93,.F.);
#107=ORIENTED_EDGE('',*,*,#94,.F.);
#108=ORIENTED_EDGE('',*,*,#91,.T.);
#109=ORIENTED_EDGE('',*,*,#95,.F.);
#110=ORIENTED_EDGE('',*,*,#95,.T.);
#111=ORIENTED_EDGE('',*,*,#94,.T.);
#112=ORIENTED_EDGE('',*,*,#96,.F.);
#113=ORIENTED_EDGE('',*,*,#97,.F.);
#114=ORIENTED_EDGE('',*,*,#98,.F.);
#115=ORIENTED_EDGE('',*,*,#99,.F.);
#116=ORIENTED_EDGE('',*,*,#99,.T.);
#117=ORIENTED_EDGE('',*,*,#97,.T.);
#118=ORIENTED_EDGE('',*,*,#98,.T.);
#119=ORIENTED_EDGE('',*,*,#96,.T.);
#120=PLANE('',#144);
#121=PLANE('',#149);
#122=PLANE('',#155);
#123=PLANE('',#162);
#124=PLANE('',#163);
#125=ADVANCED_FACE('',(#40,#30),#120,.F.);
#126=ADVANCED_FACE('',(#41,#31),#15,.T.);
#127=ADVANCED_FACE('',(#42,#32),#121,.T.);
#128=ADVANCED_FACE('',(#43,#33),#16,.F.);
#129=ADVANCED_FACE('',(#44,#34),#17,.T.);
#130=ADVANCED_FACE('',(#45,#35),#122,.F.);
#131=ADVANCED_FACE('',(#46,#36),#18,.F.);
#132=ADVANCED_FACE('',(#47,#37),#19,.T.);
#133=ADVANCED_FACE('',(#48,#38),#123,.F.);
#134=ADVANCED_FACE('',(#49,#39),#124,.T.);
#135=CLOSED_SHELL('',(#125,#126,#127,#128,#129,#130));
#136=CLOSED_SHELL('',(#131,#132,#133,#134));
#137=DATE_TIME_ROLE('creation_date');
#138=APPLIED_DATE_AND_TIME_ASSIGNMENT(#139,#137,(#251));
#139=DATE_AND_TIME(#140,#141);
#140=CALENDAR_DATE(2023,21,8);
#141=LOCAL_TIME(22,0,0.,#142);
#142=COORDINATED_UNIVERSAL_TIME_OFFSET(0,0,.BEHIND.);
#143=AXIS2_PLACEMENT_3D('placement',#206,#164,#165);
#144=AXIS2_PLACEMENT_3D('',#207,#166,#167);
#145=AXIS2_PLACEMENT_3D('',#209,#168,#169);
#146=AXIS2_PLACEMENT_3D('',#211,#170,#171);
#147=AXIS2_PLACEMENT_3D('',#212,#172,#173);
#148=AXIS2_PLACEMENT_3D('',#214,#174,#175);
#149=AXIS2_PLACEMENT_3D('',#215,#176,#177);
#150=AXIS2_PLACEMENT_3D('',#217,#178,#179);
#151=AXIS2_PLACEMENT_3D('',#218,#180,#181);
#152=AXIS2_PLACEMENT_3D('',#220,#182,#183);
#153=AXIS2_PLACEMENT_3D('',#221,#184,#185);
#154=AXIS2_PLACEMENT_3D('',#223,#186,#187);
#155=AXIS2_PLACEMENT_3D('',#224,#188,#189);
#156=AXIS2_PLACEMENT_3D('',#225,#190,#191);
#157=AXIS2_PLACEMENT_3D('',#227,#192,#193);
#158=AXIS2_PLACEMENT_3D('',#229,#194,#195);
#159=AXIS2_PLACEMENT_3D('',#230,#196,#197);
#160=AXIS2_PLACEMENT_3D('',#232,#198,#199);
#161=AXIS2_PLACEMENT_3D('',#234,#200,#201);
#162=AXIS2_PLACEMENT_3D('',#235,#202,#203);
#163=AXIS2_PLACEMENT_3D('',#236,#204,#205);
#164=DIRECTION('axis',(0.,0.,1.));
#165=DIRECTION('refdir',(1.,0.,0.));
#166=DIRECTION('center_axis',(0.,0.,1.));
#167=DIRECTION('ref_axis',(1.,0.,0.));
#168=DIRECTION('center_axis',(0.,0.,-1.));
#169=DIRECTION('ref_axis',(-1.,0.,0.));
#170=DIRECTION('center_axis',(0.,0.,-1.));
#171=DIRECTION('ref_axis',(-1.,0.,0.));
#172=DIRECTION('center_axis',(0.,0.,1.));
#173=DIRECTION('ref_axis',(-1.,0.,0.));
#174=DIRECTION('center_axis',(0.,0.,1.));
#175=DIRECTION('ref_axis',(-1.,0.,0.));
#176=DIRECTION('center_axis',(0.,0.,1.));
#177=DIRECTION('ref_axis',(1.,0.,0.));
#178=DIRECTION('center_axis',(0.,0.,-1.));
#179=DIRECTION('ref_axis',(-1.,0.,0.));
#180=DIRECTION('center_axis',(0.,0.,-1.));
#181=DIRECTION('ref_axis',(-1.,0.,0.));
#182=DIRECTION('center_axis',(0.,0.,1.));
#183=DIRECTION('ref_axis',(-1.,0.,0.));
#184=DIRECTION('center_axis',(0.,0.,-1.));
#185=DIRECTION('ref_axis',(-1.,0.,0.));
#186=DIRECTION('center_axis',(0.,0.,-1.));
#187=DIRECTION('ref_axis',(-1.,0.,0.));
#188=DIRECTION('center_axis',(0.,0.,1.));
#189=DIRECTION('ref_axis',(1.,0.,0.));
#190=DIRECTION('center_axis',(0.,0.,1.));
#191=DIRECTION('ref_axis',(-1.,0.,0.));
#192=DIRECTION('center_axis',(0.,0.,-1.));
#193=DIRECTION('ref_axis',(-1.,0.,0.));
#194=DIRECTION('center_axis',(0.,0.,1.));
#195=DIRECTION('ref_axis',(-1.,0.,0.));
#196=DIRECTION('center_axis',(0.,0.,1.));
#197=DIRECTION('ref_axis',(-1.,0.,0.));
#198=DIRECTION('center_axis',(0.,0.,1.));
#199=DIRECTION('ref_axis',(-1.,0.,0.));
#200=DIRECTION('center_axis',(0.,0.,-1.));
#201=DIRECTION('ref_axis',(-1.,0.,0.));
#202=DIRECTION('center_axis',(0.,0.,1.));
#203=DIRECTION('ref_axis',(1.,0.,0.));
#204=DIRECTION('center_axis',(0.,0.,1.));
#205=DIRECTION('ref_axis',(1.,0.,0.));
#206=CARTESIAN_POINT('',(0.,0.,0.));
#207=CARTESIAN_POINT('Origin',(-7.16007503659232E-16,0.,14.201));
#208=CARTESIAN_POINT('',(12.6,1.54305496692567E-15,14.201));
#209=CARTESIAN_POINT('Origin',(0.,0.,14.201));
#210=CARTESIAN_POINT('',(10.45,1.27975590510898E-15,14.201));
#211=CARTESIAN_POINT('Origin',(0.,0.,14.201));
#212=CARTESIAN_POINT('Origin',(0.,0.,14.201));
#213=CARTESIAN_POINT('',(12.6,1.54305496692567E-15,16.701));
#214=CARTESIAN_POINT('Origin',(0.,0.,16.701));
#215=CARTESIAN_POINT('Origin',(-7.16007503659232E-16,0.,16.701));
#216=CARTESIAN_POINT('',(7.5,9.18485099360515E-16,16.701));
#217=CARTESIAN_POINT('Origin',(0.,0.,16.701));
#218=CARTESIAN_POINT('Origin',(0.,0.,14.201));
#219=CARTESIAN_POINT('',(7.5,9.18485099360515E-16,0.));
#220=CARTESIAN_POINT('Origin',(0.,0.,0.));
#221=CARTESIAN_POINT('Origin',(0.,0.,14.201));
#222=CARTESIAN_POINT('',(10.45,-1.27975590510898E-15,0.));
#223=CARTESIAN_POINT('Origin',(0.,0.,0.));
#224=CARTESIAN_POINT('Origin',(0.,0.,0.));
#225=CARTESIAN_POINT('Origin',(0.,0.,0.));
#226=CARTESIAN_POINT('',(10.5,1.28587913910472E-15,14.2));
#227=CARTESIAN_POINT('Origin',(0.,0.,14.2));
#228=CARTESIAN_POINT('',(10.5,1.28587913910472E-15,0.));
#229=CARTESIAN_POINT('Origin',(0.,0.,0.));
#230=CARTESIAN_POINT('Origin',(0.,0.,0.));
#231=CARTESIAN_POINT('',(12.6,1.54305496692567E-15,14.2));
#232=CARTESIAN_POINT('Origin',(0.,0.,14.2));
#233=CARTESIAN_POINT('',(12.6,1.54305496692567E-15,0.));
#234=CARTESIAN_POINT('Origin',(0.,0.,0.));
#235=CARTESIAN_POINT('Origin',(-7.16007503659232E-16,0.,0.));
#236=CARTESIAN_POINT('Origin',(-7.16007503659232E-16,0.,14.2));
#237=UNCERTAINTY_MEASURE_WITH_UNIT(LENGTH_MEASURE(0.01),#241,
'DISTANCE_ACCURACY_VALUE',
'Maximum model space distance between geometric entities at asserted c
onnectivities');
#238=UNCERTAINTY_MEASURE_WITH_UNIT(LENGTH_MEASURE(1.E-6),#241,
'DISTANCE_ACCURACY_VALUE',
'Maximum model space distance between geometric entities at asserted c
onnectivities');
#239=(
GEOMETRIC_REPRESENTATION_CONTEXT(3)
GLOBAL_UNCERTAINTY_ASSIGNED_CONTEXT((#237))
GLOBAL_UNIT_ASSIGNED_CONTEXT((#241,#244,#242))
REPRESENTATION_CONTEXT('','3D')
);
#240=(
GEOMETRIC_REPRESENTATION_CONTEXT(3)
GLOBAL_UNCERTAINTY_ASSIGNED_CONTEXT((#238))
GLOBAL_UNIT_ASSIGNED_CONTEXT((#241,#244,#242))
REPRESENTATION_CONTEXT('','3D')
);
#241=(
LENGTH_UNIT()
NAMED_UNIT(*)
SI_UNIT(.MILLI.,.METRE.)
);
#242=(
NAMED_UNIT(*)
SI_UNIT($,.STERADIAN.)
SOLID_ANGLE_UNIT()
);
#243=DIMENSIONAL_EXPONENTS(0.,0.,0.,0.,0.,0.,0.);
#244=(
CONVERSION_BASED_UNIT('degree',#246)
NAMED_UNIT(#243)
PLANE_ANGLE_UNIT()
);
#245=(
NAMED_UNIT(*)
PLANE_ANGLE_UNIT()
SI_UNIT($,.RADIAN.)
);
#246=PLANE_ANGLE_MEASURE_WITH_UNIT(PLANE_ANGLE_MEASURE(0.01745329252),#245);
#247=SHAPE_DEFINITION_REPRESENTATION(#248,#249);
#248=PRODUCT_DEFINITION_SHAPE('',$,#251);
#249=SHAPE_REPRESENTATION('',(#143),#239);
#250=PRODUCT_DEFINITION_CONTEXT('part definition',#255,'design');
#251=PRODUCT_DEFINITION('00184532MDS',
'Dop-Dichteinsatz-02-BT-0001-00184532MDS',#252,#250);
#252=PRODUCT_DEFINITION_FORMATION('',$,#257);
#253=PRODUCT_RELATED_PRODUCT_CATEGORY(
'Dop-Dichteinsatz-02-BT-0001-00184532MDS',
'Dop-Dichteinsatz-02-BT-0001-00184532MDS',(#257));
#254=APPLICATION_PROTOCOL_DEFINITION('international standard',
'automotive_design',2009,#255);
#255=APPLICATION_CONTEXT(
'Core Data for Automotive Mechanical Design Process');
#256=PRODUCT_CONTEXT('part definition',#255,'mechanical');
#257=PRODUCT('00184532MDS','Dop-Dichteinsatz-02-BT-0001-00184532MDS',
'Dop-Dichteinsatz f\X\FCr Euro-Top MS',(#256));
#258=PRESENTATION_STYLE_ASSIGNMENT((#261));
#259=PRESENTATION_STYLE_ASSIGNMENT((#262));
#260=PRESENTATION_STYLE_ASSIGNMENT((#263));
#261=SURFACE_STYLE_USAGE(.BOTH.,#264);
#262=SURFACE_STYLE_USAGE(.BOTH.,#265);
#263=SURFACE_STYLE_USAGE(.BOTH.,#266);
#264=SURFACE_SIDE_STYLE('',(#267));
#265=SURFACE_SIDE_STYLE('',(#268));
#266=SURFACE_SIDE_STYLE('',(#269));
#267=SURFACE_STYLE_FILL_AREA(#270);
#268=SURFACE_STYLE_FILL_AREA(#271);
#269=SURFACE_STYLE_FILL_AREA(#272);
#270=FILL_AREA_STYLE('',(#273));
#271=FILL_AREA_STYLE('',(#274));
#272=FILL_AREA_STYLE('',(#275));
#273=FILL_AREA_STYLE_COLOUR('',#276);
#274=FILL_AREA_STYLE_COLOUR('',#277);
#275=FILL_AREA_STYLE_COLOUR('',#278);
#276=COLOUR_RGB('',0.250980392156863,0.250980392156863,0.250980392156863);
#277=COLOUR_RGB('',0.6,0.6,0.6);
#278=COLOUR_RGB('',0.250980392156863,0.250980392156863,0.250980392156863);
ENDSEC;
END-ISO-10303-21;
