ISO-10303-21;
HEADER;
/* Generated by software containing ST-Developer
 * from STEP Tools, Inc. (www.steptools.com) 
 */

FILE_DESCRIPTION(
/* description */ ('Blindstopfen PG 7 (2-5/2-4)'),
/* implementation_level */ '2;1');

FILE_NAME(
/* name */ 
'Z:\\Inventor\\Blindstopfen\\Blindstopfen-DS\\72007407DS-RST.stp',
/* time_stamp */ '2022-02-08T15:24:16+01:00',
/* author */ ('sl'),
/* organization */ (''),
/* preprocessor_version */ 'ST-DEVELOPER v16.5',
/* originating_system */ 'Autodesk Inventor 2017',
/* authorisation */ '');

FILE_SCHEMA (('AUTOMOTIVE_DESIGN { 1 0 10303 214 3 1 1 }'));
ENDSEC;

DATA;
#10=MECHANICAL_DESIGN_GEOMETRIC_PRESENTATION_REPRESENTATION('',(#13),#223);
#11=SHAPE_REPRESENTATION_RELATIONSHIP('SRR','None',#232,#12);
#12=ADVANCED_BREP_SHAPE_REPRESENTATION('',(#14),#222);
#13=STYLED_ITEM('',(#241),#14);
#14=MANIFOLD_SOLID_BREP('Volumenk\X\F6rper1',#106);
#15=SPHERICAL_SURFACE('',#125,4.645);
#16=(
BOUNDED_CURVE()
B_SPLINE_CURVE(2,(#206,#207,#208),.UNSPECIFIED.,.F.,.F.)
B_SPLINE_CURVE_WITH_KNOTS((3,3),(0.,1.5707963267949),.UNSPECIFIED.)
CURVE()
GEOMETRIC_REPRESENTATION_ITEM()
RATIONAL_B_SPLINE_CURVE((1.,0.707106781186546,1.))
REPRESENTATION_ITEM('')
);
#17=(
BOUNDED_SURFACE()
B_SPLINE_SURFACE(2,2,((#178,#179,#180,#181,#182,#183,#184,#185,#186),(#187,
#188,#189,#190,#191,#192,#193,#194,#195),(#196,#197,#198,#199,#200,#201,
#202,#203,#204)),.UNSPECIFIED.,.F.,.T.,.F.)
B_SPLINE_SURFACE_WITH_KNOTS((3,3),(3,2,2,2,3),(-1.5707963267949,0.),(-3.14159265358979,
-1.5707963267949,0.,1.5707963267949,3.14159265358979),.UNSPECIFIED.)
GEOMETRIC_REPRESENTATION_ITEM()
RATIONAL_B_SPLINE_SURFACE(((1.,0.707106781186548,1.,0.707106781186548,1.,
0.707106781186548,1.,0.707106781186548,1.),(0.707106781186546,0.499999999999999,
0.707106781186546,0.499999999999999,0.707106781186546,0.499999999999999,
0.707106781186546,0.499999999999999,0.707106781186546),(1.,0.707106781186548,
1.,0.707106781186548,1.,0.707106781186548,1.,0.707106781186548,1.)))
REPRESENTATION_ITEM('')
SURFACE()
);
#18=CYLINDRICAL_SURFACE('',#119,1.5);
#19=CYLINDRICAL_SURFACE('',#129,2.);
#20=PLANE('',#117);
#21=PLANE('',#124);
#22=PLANE('',#127);
#23=FACE_BOUND('',#37,.T.);
#24=FACE_BOUND('',#39,.T.);
#25=FACE_BOUND('',#41,.T.);
#26=FACE_BOUND('',#46,.T.);
#27=FACE_BOUND('',#48,.T.);
#28=FACE_OUTER_BOUND('',#36,.T.);
#29=FACE_OUTER_BOUND('',#38,.T.);
#30=FACE_OUTER_BOUND('',#40,.T.);
#31=FACE_OUTER_BOUND('',#42,.T.);
#32=FACE_OUTER_BOUND('',#43,.T.);
#33=FACE_OUTER_BOUND('',#44,.T.);
#34=FACE_OUTER_BOUND('',#45,.T.);
#35=FACE_OUTER_BOUND('',#47,.T.);
#36=EDGE_LOOP('',(#77));
#37=EDGE_LOOP('',(#78));
#38=EDGE_LOOP('',(#79));
#39=EDGE_LOOP('',(#80));
#40=EDGE_LOOP('',(#81,#82));
#41=EDGE_LOOP('',(#83));
#42=EDGE_LOOP('',(#84,#85,#86,#87,#88,#89));
#43=EDGE_LOOP('',(#90,#91));
#44=EDGE_LOOP('',(#92));
#45=EDGE_LOOP('',(#93));
#46=EDGE_LOOP('',(#94));
#47=EDGE_LOOP('',(#95));
#48=EDGE_LOOP('',(#96));
#49=CIRCLE('',#115,1.8);
#50=CIRCLE('',#116,2.);
#51=CIRCLE('',#118,1.5);
#52=CIRCLE('',#120,1.5);
#53=CIRCLE('',#121,1.5);
#54=CIRCLE('',#122,0.500000000000005);
#55=CIRCLE('',#123,0.500000000000005);
#56=CIRCLE('',#126,4.6);
#57=CIRCLE('',#128,2.);
#58=VERTEX_POINT('',#166);
#59=VERTEX_POINT('',#168);
#60=VERTEX_POINT('',#171);
#61=VERTEX_POINT('',#174);
#62=VERTEX_POINT('',#175);
#63=VERTEX_POINT('',#205);
#64=VERTEX_POINT('',#209);
#65=VERTEX_POINT('',#214);
#66=VERTEX_POINT('',#217);
#67=EDGE_CURVE('',#58,#58,#49,.T.);
#68=EDGE_CURVE('',#59,#59,#50,.T.);
#69=EDGE_CURVE('',#60,#60,#51,.T.);
#70=EDGE_CURVE('',#61,#62,#52,.T.);
#71=EDGE_CURVE('',#62,#61,#53,.T.);
#72=EDGE_CURVE('',#62,#63,#16,.T.);
#73=EDGE_CURVE('',#64,#63,#54,.T.);
#74=EDGE_CURVE('',#63,#64,#55,.T.);
#75=EDGE_CURVE('',#65,#65,#56,.T.);
#76=EDGE_CURVE('',#66,#66,#57,.T.);
#77=ORIENTED_EDGE('',*,*,#67,.F.);
#78=ORIENTED_EDGE('',*,*,#68,.T.);
#79=ORIENTED_EDGE('',*,*,#67,.T.);
#80=ORIENTED_EDGE('',*,*,#69,.F.);
#81=ORIENTED_EDGE('',*,*,#70,.F.);
#82=ORIENTED_EDGE('',*,*,#71,.F.);
#83=ORIENTED_EDGE('',*,*,#69,.T.);
#84=ORIENTED_EDGE('',*,*,#70,.T.);
#85=ORIENTED_EDGE('',*,*,#72,.T.);
#86=ORIENTED_EDGE('',*,*,#73,.F.);
#87=ORIENTED_EDGE('',*,*,#74,.F.);
#88=ORIENTED_EDGE('',*,*,#72,.F.);
#89=ORIENTED_EDGE('',*,*,#71,.T.);
#90=ORIENTED_EDGE('',*,*,#73,.T.);
#91=ORIENTED_EDGE('',*,*,#74,.T.);
#92=ORIENTED_EDGE('',*,*,#75,.F.);
#93=ORIENTED_EDGE('',*,*,#75,.T.);
#94=ORIENTED_EDGE('',*,*,#76,.F.);
#95=ORIENTED_EDGE('',*,*,#68,.F.);
#96=ORIENTED_EDGE('',*,*,#76,.T.);
#97=CONICAL_SURFACE('',#114,1.9,45.);
#98=ADVANCED_FACE('',(#28,#23),#97,.T.);
#99=ADVANCED_FACE('',(#29,#24),#20,.T.);
#100=ADVANCED_FACE('',(#30,#25),#18,.F.);
#101=ADVANCED_FACE('',(#31),#17,.T.);
#102=ADVANCED_FACE('',(#32),#21,.T.);
#103=ADVANCED_FACE('',(#33),#15,.T.);
#104=ADVANCED_FACE('',(#34,#26),#22,.T.);
#105=ADVANCED_FACE('',(#35,#27),#19,.T.);
#106=CLOSED_SHELL('',(#98,#99,#100,#101,#102,#103,#104,#105));
#107=DATE_TIME_ROLE('creation_date');
#108=APPLIED_DATE_AND_TIME_ASSIGNMENT(#109,#107,(#234));
#109=DATE_AND_TIME(#110,#111);
#110=CALENDAR_DATE(2022,7,2);
#111=LOCAL_TIME(23,0,0.,#112);
#112=COORDINATED_UNIVERSAL_TIME_OFFSET(0,0,.BEHIND.);
#113=AXIS2_PLACEMENT_3D('placement',#164,#130,#131);
#114=AXIS2_PLACEMENT_3D('',#165,#132,#133);
#115=AXIS2_PLACEMENT_3D('',#167,#134,#135);
#116=AXIS2_PLACEMENT_3D('',#169,#136,#137);
#117=AXIS2_PLACEMENT_3D('',#170,#138,#139);
#118=AXIS2_PLACEMENT_3D('',#172,#140,#141);
#119=AXIS2_PLACEMENT_3D('',#173,#142,#143);
#120=AXIS2_PLACEMENT_3D('',#176,#144,#145);
#121=AXIS2_PLACEMENT_3D('',#177,#146,#147);
#122=AXIS2_PLACEMENT_3D('',#210,#148,#149);
#123=AXIS2_PLACEMENT_3D('',#211,#150,#151);
#124=AXIS2_PLACEMENT_3D('',#212,#152,#153);
#125=AXIS2_PLACEMENT_3D('',#213,#154,#155);
#126=AXIS2_PLACEMENT_3D('',#215,#156,#157);
#127=AXIS2_PLACEMENT_3D('',#216,#158,#159);
#128=AXIS2_PLACEMENT_3D('',#218,#160,#161);
#129=AXIS2_PLACEMENT_3D('',#219,#162,#163);
#130=DIRECTION('axis',(0.,0.,1.));
#131=DIRECTION('refdir',(1.,0.,0.));
#132=DIRECTION('center_axis',(-1.,0.,0.));
#133=DIRECTION('ref_axis',(0.,1.,0.));
#134=DIRECTION('center_axis',(1.,0.,0.));
#135=DIRECTION('ref_axis',(0.,0.,-1.));
#136=DIRECTION('center_axis',(1.,0.,0.));
#137=DIRECTION('ref_axis',(0.,0.,-1.));
#138=DIRECTION('center_axis',(1.,0.,0.));
#139=DIRECTION('ref_axis',(0.,0.,-1.));
#140=DIRECTION('center_axis',(1.,0.,0.));
#141=DIRECTION('ref_axis',(0.,0.,-1.));
#142=DIRECTION('center_axis',(1.,0.,0.));
#143=DIRECTION('ref_axis',(0.,1.,0.));
#144=DIRECTION('center_axis',(1.,0.,0.));
#145=DIRECTION('ref_axis',(0.,0.,-1.));
#146=DIRECTION('center_axis',(1.,0.,0.));
#147=DIRECTION('ref_axis',(0.,0.,-1.));
#148=DIRECTION('center_axis',(1.,0.,0.));
#149=DIRECTION('ref_axis',(0.,0.,-1.));
#150=DIRECTION('center_axis',(1.,0.,0.));
#151=DIRECTION('ref_axis',(0.,0.,-1.));
#152=DIRECTION('center_axis',(1.,0.,0.));
#153=DIRECTION('ref_axis',(0.,0.,-1.));
#154=DIRECTION('center_axis',(0.,0.,1.));
#155=DIRECTION('ref_axis',(1.,0.,0.));
#156=DIRECTION('center_axis',(1.,0.,0.));
#157=DIRECTION('ref_axis',(0.,0.,-1.));
#158=DIRECTION('center_axis',(1.,0.,0.));
#159=DIRECTION('ref_axis',(0.,0.,-1.));
#160=DIRECTION('center_axis',(1.,0.,0.));
#161=DIRECTION('ref_axis',(0.,0.,-1.));
#162=DIRECTION('center_axis',(1.,0.,0.));
#163=DIRECTION('ref_axis',(0.,1.,0.));
#164=CARTESIAN_POINT('',(0.,0.,0.));
#165=CARTESIAN_POINT('Origin',(-0.1,0.,0.));
#166=CARTESIAN_POINT('',(0.,1.8,0.));
#167=CARTESIAN_POINT('Origin',(0.,0.,0.));
#168=CARTESIAN_POINT('',(-0.2,2.,0.));
#169=CARTESIAN_POINT('Origin',(-0.2,0.,0.));
#170=CARTESIAN_POINT('Origin',(0.,1.5,0.));
#171=CARTESIAN_POINT('',(0.,1.5,0.));
#172=CARTESIAN_POINT('Origin',(0.,0.,0.));
#173=CARTESIAN_POINT('Origin',(-5.,0.,0.));
#174=CARTESIAN_POINT('',(-10.,1.5,0.));
#175=CARTESIAN_POINT('',(-10.,0.,1.5));
#176=CARTESIAN_POINT('Origin',(-10.,0.,0.));
#177=CARTESIAN_POINT('Origin',(-10.,0.,0.));
#178=CARTESIAN_POINT('Ctrl Pts',(-11.,0.,0.500000000000005));
#179=CARTESIAN_POINT('Ctrl Pts',(-11.,-0.500000000000004,0.500000000000004));
#180=CARTESIAN_POINT('Ctrl Pts',(-11.,-0.500000000000005,0.));
#181=CARTESIAN_POINT('Ctrl Pts',(-11.,-0.500000000000004,-0.500000000000004));
#182=CARTESIAN_POINT('Ctrl Pts',(-11.,0.,-0.500000000000005));
#183=CARTESIAN_POINT('Ctrl Pts',(-11.,0.500000000000004,-0.500000000000004));
#184=CARTESIAN_POINT('Ctrl Pts',(-11.,0.500000000000005,0.));
#185=CARTESIAN_POINT('Ctrl Pts',(-11.,0.500000000000004,0.500000000000004));
#186=CARTESIAN_POINT('Ctrl Pts',(-11.,0.,0.500000000000005));
#187=CARTESIAN_POINT('Ctrl Pts',(-11.,0.,1.5));
#188=CARTESIAN_POINT('Ctrl Pts',(-11.,-1.5,1.5));
#189=CARTESIAN_POINT('Ctrl Pts',(-11.,-1.5,0.));
#190=CARTESIAN_POINT('Ctrl Pts',(-11.,-1.5,-1.5));
#191=CARTESIAN_POINT('Ctrl Pts',(-11.,0.,-1.5));
#192=CARTESIAN_POINT('Ctrl Pts',(-11.,1.5,-1.5));
#193=CARTESIAN_POINT('Ctrl Pts',(-11.,1.5,0.));
#194=CARTESIAN_POINT('Ctrl Pts',(-11.,1.5,1.5));
#195=CARTESIAN_POINT('Ctrl Pts',(-11.,0.,1.5));
#196=CARTESIAN_POINT('Ctrl Pts',(-10.,0.,1.5));
#197=CARTESIAN_POINT('Ctrl Pts',(-10.,-1.5,1.5));
#198=CARTESIAN_POINT('Ctrl Pts',(-10.,-1.5,0.));
#199=CARTESIAN_POINT('Ctrl Pts',(-10.,-1.5,-1.5));
#200=CARTESIAN_POINT('Ctrl Pts',(-10.,0.,-1.5));
#201=CARTESIAN_POINT('Ctrl Pts',(-10.,1.5,-1.5));
#202=CARTESIAN_POINT('Ctrl Pts',(-10.,1.5,0.));
#203=CARTESIAN_POINT('Ctrl Pts',(-10.,1.5,1.5));
#204=CARTESIAN_POINT('Ctrl Pts',(-10.,0.,1.5));
#205=CARTESIAN_POINT('',(-11.,0.,0.500000000000005));
#206=CARTESIAN_POINT('Ctrl Pts',(-10.,0.,1.5));
#207=CARTESIAN_POINT('Ctrl Pts',(-11.,0.,1.5));
#208=CARTESIAN_POINT('Ctrl Pts',(-11.,0.,0.500000000000005));
#209=CARTESIAN_POINT('',(-11.,0.500000000000005,0.));
#210=CARTESIAN_POINT('Origin',(-11.,0.,0.));
#211=CARTESIAN_POINT('Origin',(-11.,0.,0.));
#212=CARTESIAN_POINT('Origin',(-11.,1.94289029309402E-15,0.));
#213=CARTESIAN_POINT('Origin',(-11.355,5.55111512312578E-16,0.));
#214=CARTESIAN_POINT('',(-12.,4.6,0.));
#215=CARTESIAN_POINT('Origin',(-12.,0.,0.));
#216=CARTESIAN_POINT('Origin',(-12.,2.,0.));
#217=CARTESIAN_POINT('',(-12.,2.,0.));
#218=CARTESIAN_POINT('Origin',(-12.,0.,0.));
#219=CARTESIAN_POINT('Origin',(-6.1,0.,0.));
#220=UNCERTAINTY_MEASURE_WITH_UNIT(LENGTH_MEASURE(0.01),#224,
'DISTANCE_ACCURACY_VALUE',
'Maximum model space distance between geometric entities at asserted c
onnectivities');
#221=UNCERTAINTY_MEASURE_WITH_UNIT(LENGTH_MEASURE(1.E-6),#224,
'DISTANCE_ACCURACY_VALUE',
'Maximum model space distance between geometric entities at asserted c
onnectivities');
#222=(
GEOMETRIC_REPRESENTATION_CONTEXT(3)
GLOBAL_UNCERTAINTY_ASSIGNED_CONTEXT((#220))
GLOBAL_UNIT_ASSIGNED_CONTEXT((#224,#227,#225))
REPRESENTATION_CONTEXT('','3D')
);
#223=(
GEOMETRIC_REPRESENTATION_CONTEXT(3)
GLOBAL_UNCERTAINTY_ASSIGNED_CONTEXT((#221))
GLOBAL_UNIT_ASSIGNED_CONTEXT((#224,#227,#225))
REPRESENTATION_CONTEXT('','3D')
);
#224=(
LENGTH_UNIT()
NAMED_UNIT(*)
SI_UNIT(.MILLI.,.METRE.)
);
#225=(
NAMED_UNIT(*)
SI_UNIT($,.STERADIAN.)
SOLID_ANGLE_UNIT()
);
#226=DIMENSIONAL_EXPONENTS(0.,0.,0.,0.,0.,0.,0.);
#227=(
CONVERSION_BASED_UNIT('degree',#229)
NAMED_UNIT(#226)
PLANE_ANGLE_UNIT()
);
#228=(
NAMED_UNIT(*)
PLANE_ANGLE_UNIT()
SI_UNIT($,.RADIAN.)
);
#229=PLANE_ANGLE_MEASURE_WITH_UNIT(PLANE_ANGLE_MEASURE(0.01745329252),#228);
#230=SHAPE_DEFINITION_REPRESENTATION(#231,#232);
#231=PRODUCT_DEFINITION_SHAPE('',$,#234);
#232=SHAPE_REPRESENTATION('',(#113),#222);
#233=PRODUCT_DEFINITION_CONTEXT('part definition',#238,'design');
#234=PRODUCT_DEFINITION('72007407DS',
'Blindstopfen-01-BT-0001-72007407DS',#235,#233);
#235=PRODUCT_DEFINITION_FORMATION('',$,#240);
#236=PRODUCT_RELATED_PRODUCT_CATEGORY(
'Blindstopfen-01-BT-0001-72007407DS',
'Blindstopfen-01-BT-0001-72007407DS',(#240));
#237=APPLICATION_PROTOCOL_DEFINITION('international standard',
'automotive_design',2009,#238);
#238=APPLICATION_CONTEXT(
'Core Data for Automotive Mechanical Design Process');
#239=PRODUCT_CONTEXT('part definition',#238,'mechanical');
#240=PRODUCT('72007407DS','Blindstopfen-01-BT-0001-72007407DS',
'Blindstopfen PG 7 (2-5/2-4)',(#239));
#241=PRESENTATION_STYLE_ASSIGNMENT((#242));
#242=SURFACE_STYLE_USAGE(.BOTH.,#243);
#243=SURFACE_SIDE_STYLE('',(#244));
#244=SURFACE_STYLE_FILL_AREA(#245);
#245=FILL_AREA_STYLE('',(#246));
#246=FILL_AREA_STYLE_COLOUR('',#247);
#247=COLOUR_RGB('',0.749019607843137,0.749019607843137,0.749019607843137);
ENDSEC;
END-ISO-10303-21;
