ISO-10303-21;
HEADER;
/* Generated by software containing ST-Developer
 * from STEP Tools, Inc. (www.steptools.com) 
 */

FILE_DESCRIPTION(
/* description */ ('Blindstopfen PG 9'),
/* implementation_level */ '2;1');

FILE_NAME(
/* name */ 
'Z:\\Inventor\\Blindstopfen\\Blindstopfen-DS\\72007409DS-RST.stp',
/* time_stamp */ '2022-02-08T15:23:06+01:00',
/* author */ ('sl'),
/* organization */ (''),
/* preprocessor_version */ 'ST-DEVELOPER v16.5',
/* originating_system */ 'Autodesk Inventor 2017',
/* authorisation */ '');

FILE_SCHEMA (('AUTOMOTIVE_DESIGN { 1 0 10303 214 3 1 1 }'));
ENDSEC;

DATA;
#10=MECHANICAL_DESIGN_GEOMETRIC_PRESENTATION_REPRESENTATION('',(#13),#237);
#11=SHAPE_REPRESENTATION_RELATIONSHIP('SRR','None',#246,#12);
#12=ADVANCED_BREP_SHAPE_REPRESENTATION('',(#14),#236);
#13=STYLED_ITEM('',(#255),#14);
#14=MANIFOLD_SOLID_BREP('Volumenk\X\F6rper1',#115);
#15=(
BOUNDED_CURVE()
B_SPLINE_CURVE(2,(#227,#228,#229),.UNSPECIFIED.,.F.,.F.)
B_SPLINE_CURVE_WITH_KNOTS((3,3),(0.053435823129985,1.56613132201035),
 .UNSPECIFIED.)
CURVE()
GEOMETRIC_REPRESENTATION_ITEM()
RATIONAL_B_SPLINE_CURVE((1.,0.727347284616237,1.))
REPRESENTATION_ITEM('')
);
#16=(
BOUNDED_SURFACE()
B_SPLINE_SURFACE(2,2,((#195,#196,#197,#198,#199,#200,#201,#202,#203),(#204,
#205,#206,#207,#208,#209,#210,#211,#212),(#213,#214,#215,#216,#217,#218,
#219,#220,#221)),.UNSPECIFIED.,.F.,.T.,.F.)
B_SPLINE_SURFACE_WITH_KNOTS((3,3),(3,2,2,2,3),(-1.56613132201035,-0.053435823129985),
(-3.14159265358979,-1.5707963267949,0.,1.5707963267949,3.14159265358979),
 .UNSPECIFIED.)
GEOMETRIC_REPRESENTATION_ITEM()
RATIONAL_B_SPLINE_SURFACE(((1.,0.707106781186548,1.,0.707106781186548,1.,
0.707106781186548,1.,0.707106781186548,1.),(0.727347284616237,0.514312197229763,
0.727347284616237,0.514312197229763,0.727347284616237,0.514312197229763,
0.727347284616237,0.514312197229763,0.727347284616237),(1.,0.707106781186548,
1.,0.707106781186548,1.,0.707106781186548,1.,0.707106781186548,1.)))
REPRESENTATION_ITEM('')
SURFACE()
);
#17=CYLINDRICAL_SURFACE('',#130,1.5);
#18=CYLINDRICAL_SURFACE('',#139,2.5);
#19=TOROIDAL_SURFACE('',#128,1.8,0.300000000000001);
#20=TOROIDAL_SURFACE('',#132,1.,0.500000000000003);
#21=PLANE('',#126);
#22=PLANE('',#134);
#23=PLANE('',#137);
#24=FACE_BOUND('',#41,.T.);
#25=FACE_BOUND('',#43,.T.);
#26=FACE_BOUND('',#45,.T.);
#27=FACE_BOUND('',#47,.T.);
#28=FACE_BOUND('',#49,.T.);
#29=FACE_BOUND('',#53,.T.);
#30=FACE_BOUND('',#55,.T.);
#31=FACE_OUTER_BOUND('',#40,.T.);
#32=FACE_OUTER_BOUND('',#42,.T.);
#33=FACE_OUTER_BOUND('',#44,.T.);
#34=FACE_OUTER_BOUND('',#46,.T.);
#35=FACE_OUTER_BOUND('',#48,.T.);
#36=FACE_OUTER_BOUND('',#50,.T.);
#37=FACE_OUTER_BOUND('',#51,.T.);
#38=FACE_OUTER_BOUND('',#52,.T.);
#39=FACE_OUTER_BOUND('',#54,.T.);
#40=EDGE_LOOP('',(#85));
#41=EDGE_LOOP('',(#86));
#42=EDGE_LOOP('',(#87));
#43=EDGE_LOOP('',(#88));
#44=EDGE_LOOP('',(#89));
#45=EDGE_LOOP('',(#90));
#46=EDGE_LOOP('',(#91));
#47=EDGE_LOOP('',(#92));
#48=EDGE_LOOP('',(#93));
#49=EDGE_LOOP('',(#94));
#50=EDGE_LOOP('',(#95));
#51=EDGE_LOOP('',(#96,#97,#98,#99));
#52=EDGE_LOOP('',(#100,#101));
#53=EDGE_LOOP('',(#102));
#54=EDGE_LOOP('',(#103));
#55=EDGE_LOOP('',(#104));
#56=CIRCLE('',#124,2.);
#57=CIRCLE('',#125,2.5);
#58=CIRCLE('',#127,1.8);
#59=CIRCLE('',#129,1.5);
#60=CIRCLE('',#131,1.5);
#61=CIRCLE('',#133,1.);
#62=CIRCLE('',#135,5.25);
#63=CIRCLE('',#136,5.25);
#64=CIRCLE('',#138,2.5);
#65=VERTEX_POINT('',#178);
#66=VERTEX_POINT('',#180);
#67=VERTEX_POINT('',#183);
#68=VERTEX_POINT('',#186);
#69=VERTEX_POINT('',#189);
#70=VERTEX_POINT('',#192);
#71=VERTEX_POINT('',#222);
#72=VERTEX_POINT('',#223);
#73=VERTEX_POINT('',#226);
#74=VERTEX_POINT('',#231);
#75=EDGE_CURVE('',#65,#65,#56,.T.);
#76=EDGE_CURVE('',#66,#66,#57,.T.);
#77=EDGE_CURVE('',#67,#67,#58,.T.);
#78=EDGE_CURVE('',#68,#68,#59,.T.);
#79=EDGE_CURVE('',#69,#69,#60,.T.);
#80=EDGE_CURVE('',#70,#70,#61,.T.);
#81=EDGE_CURVE('',#71,#72,#62,.T.);
#82=EDGE_CURVE('',#72,#71,#63,.T.);
#83=EDGE_CURVE('',#72,#73,#15,.T.);
#84=EDGE_CURVE('',#74,#74,#64,.T.);
#85=ORIENTED_EDGE('',*,*,#75,.F.);
#86=ORIENTED_EDGE('',*,*,#76,.T.);
#87=ORIENTED_EDGE('',*,*,#75,.T.);
#88=ORIENTED_EDGE('',*,*,#77,.F.);
#89=ORIENTED_EDGE('',*,*,#78,.F.);
#90=ORIENTED_EDGE('',*,*,#77,.T.);
#91=ORIENTED_EDGE('',*,*,#79,.F.);
#92=ORIENTED_EDGE('',*,*,#78,.T.);
#93=ORIENTED_EDGE('',*,*,#80,.F.);
#94=ORIENTED_EDGE('',*,*,#79,.T.);
#95=ORIENTED_EDGE('',*,*,#80,.T.);
#96=ORIENTED_EDGE('',*,*,#81,.F.);
#97=ORIENTED_EDGE('',*,*,#82,.F.);
#98=ORIENTED_EDGE('',*,*,#83,.T.);
#99=ORIENTED_EDGE('',*,*,#83,.F.);
#100=ORIENTED_EDGE('',*,*,#81,.T.);
#101=ORIENTED_EDGE('',*,*,#82,.T.);
#102=ORIENTED_EDGE('',*,*,#84,.F.);
#103=ORIENTED_EDGE('',*,*,#76,.F.);
#104=ORIENTED_EDGE('',*,*,#84,.T.);
#105=CONICAL_SURFACE('',#123,2.25,45.);
#106=ADVANCED_FACE('',(#31,#24),#105,.T.);
#107=ADVANCED_FACE('',(#32,#25),#21,.T.);
#108=ADVANCED_FACE('',(#33,#26),#19,.T.);
#109=ADVANCED_FACE('',(#34,#27),#17,.F.);
#110=ADVANCED_FACE('',(#35,#28),#20,.F.);
#111=ADVANCED_FACE('',(#36),#22,.T.);
#112=ADVANCED_FACE('',(#37),#16,.F.);
#113=ADVANCED_FACE('',(#38,#29),#23,.T.);
#114=ADVANCED_FACE('',(#39,#30),#18,.T.);
#115=CLOSED_SHELL('',(#106,#107,#108,#109,#110,#111,#112,#113,#114));
#116=DATE_TIME_ROLE('creation_date');
#117=APPLIED_DATE_AND_TIME_ASSIGNMENT(#118,#116,(#248));
#118=DATE_AND_TIME(#119,#120);
#119=CALENDAR_DATE(2022,7,2);
#120=LOCAL_TIME(23,0,0.,#121);
#121=COORDINATED_UNIVERSAL_TIME_OFFSET(0,0,.BEHIND.);
#122=AXIS2_PLACEMENT_3D('placement',#176,#140,#141);
#123=AXIS2_PLACEMENT_3D('',#177,#142,#143);
#124=AXIS2_PLACEMENT_3D('',#179,#144,#145);
#125=AXIS2_PLACEMENT_3D('',#181,#146,#147);
#126=AXIS2_PLACEMENT_3D('',#182,#148,#149);
#127=AXIS2_PLACEMENT_3D('',#184,#150,#151);
#128=AXIS2_PLACEMENT_3D('',#185,#152,#153);
#129=AXIS2_PLACEMENT_3D('',#187,#154,#155);
#130=AXIS2_PLACEMENT_3D('',#188,#156,#157);
#131=AXIS2_PLACEMENT_3D('',#190,#158,#159);
#132=AXIS2_PLACEMENT_3D('',#191,#160,#161);
#133=AXIS2_PLACEMENT_3D('',#193,#162,#163);
#134=AXIS2_PLACEMENT_3D('',#194,#164,#165);
#135=AXIS2_PLACEMENT_3D('',#224,#166,#167);
#136=AXIS2_PLACEMENT_3D('',#225,#168,#169);
#137=AXIS2_PLACEMENT_3D('',#230,#170,#171);
#138=AXIS2_PLACEMENT_3D('',#232,#172,#173);
#139=AXIS2_PLACEMENT_3D('',#233,#174,#175);
#140=DIRECTION('axis',(0.,0.,1.));
#141=DIRECTION('refdir',(1.,0.,0.));
#142=DIRECTION('center_axis',(-1.,1.38205695930705E-16,0.));
#143=DIRECTION('ref_axis',(0.,1.,0.));
#144=DIRECTION('center_axis',(1.,-1.38205695930705E-16,0.));
#145=DIRECTION('ref_axis',(0.,0.,-1.));
#146=DIRECTION('center_axis',(1.,-1.38205695930705E-16,0.));
#147=DIRECTION('ref_axis',(0.,0.,-1.));
#148=DIRECTION('center_axis',(1.,-1.38205695930705E-16,0.));
#149=DIRECTION('ref_axis',(0.,0.,-1.));
#150=DIRECTION('center_axis',(1.,-1.38205695930705E-16,0.));
#151=DIRECTION('ref_axis',(0.,0.,-1.));
#152=DIRECTION('center_axis',(1.,-1.38205695930705E-16,0.));
#153=DIRECTION('ref_axis',(0.,0.,-1.));
#154=DIRECTION('center_axis',(1.,-1.38205695930705E-16,0.));
#155=DIRECTION('ref_axis',(0.,0.,-1.));
#156=DIRECTION('center_axis',(1.,-1.38205695930705E-16,0.));
#157=DIRECTION('ref_axis',(0.,1.,0.));
#158=DIRECTION('center_axis',(1.,-1.38205695930705E-16,0.));
#159=DIRECTION('ref_axis',(0.,0.,-1.));
#160=DIRECTION('center_axis',(1.,-1.38205695930705E-16,0.));
#161=DIRECTION('ref_axis',(0.,0.,-1.));
#162=DIRECTION('center_axis',(1.,-1.38205695930705E-16,0.));
#163=DIRECTION('ref_axis',(0.,0.,-1.));
#164=DIRECTION('center_axis',(1.,-1.38205695930705E-16,0.));
#165=DIRECTION('ref_axis',(0.,0.,-1.));
#166=DIRECTION('center_axis',(1.,-1.38205695930705E-16,0.));
#167=DIRECTION('ref_axis',(0.,0.,-1.));
#168=DIRECTION('center_axis',(1.,-1.38205695930705E-16,0.));
#169=DIRECTION('ref_axis',(0.,0.,-1.));
#170=DIRECTION('center_axis',(1.,-1.38205695930705E-16,0.));
#171=DIRECTION('ref_axis',(0.,0.,-1.));
#172=DIRECTION('center_axis',(1.,-1.38205695930705E-16,0.));
#173=DIRECTION('ref_axis',(0.,0.,-1.));
#174=DIRECTION('center_axis',(1.,-1.38205695930705E-16,0.));
#175=DIRECTION('ref_axis',(0.,1.,0.));
#176=CARTESIAN_POINT('',(0.,0.,0.));
#177=CARTESIAN_POINT('Origin',(-0.25,3.45514239826762E-17,0.));
#178=CARTESIAN_POINT('',(0.,2.,0.));
#179=CARTESIAN_POINT('Origin',(0.,0.,0.));
#180=CARTESIAN_POINT('',(-0.5,2.5,0.));
#181=CARTESIAN_POINT('Origin',(-0.5,6.91028479653525E-17,0.));
#182=CARTESIAN_POINT('Origin',(0.,1.8,0.));
#183=CARTESIAN_POINT('',(0.,1.8,0.));
#184=CARTESIAN_POINT('Origin',(0.,0.,0.));
#185=CARTESIAN_POINT('Origin',(-0.3,4.14617087792115E-17,0.));
#186=CARTESIAN_POINT('',(-0.3,1.5,0.));
#187=CARTESIAN_POINT('Origin',(-0.3,4.14617087792115E-17,0.));
#188=CARTESIAN_POINT('Origin',(-6.9,9.53619301921865E-16,0.));
#189=CARTESIAN_POINT('',(-13.5,1.5,0.));
#190=CARTESIAN_POINT('Origin',(-13.5,1.86577689506452E-15,0.));
#191=CARTESIAN_POINT('Origin',(-13.5,1.86577689506452E-15,0.));
#192=CARTESIAN_POINT('',(-14.,1.,0.));
#193=CARTESIAN_POINT('Origin',(-14.,1.93487974302987E-15,0.));
#194=CARTESIAN_POINT('Origin',(-14.,1.94289029309402E-15,0.));
#195=CARTESIAN_POINT('Ctrl Pts',(-19.,2.6259082226834E-15,3.33934269125535E-16));
#196=CARTESIAN_POINT('Ctrl Pts',(-19.,2.29197395355786E-15,3.33934269125535E-16));
#197=CARTESIAN_POINT('Ctrl Pts',(-19.,2.29197395355786E-15,0.));
#198=CARTESIAN_POINT('Ctrl Pts',(-19.,2.29197395355786E-15,-3.33934269125535E-16));
#199=CARTESIAN_POINT('Ctrl Pts',(-19.,2.6259082226834E-15,-3.33934269125535E-16));
#200=CARTESIAN_POINT('Ctrl Pts',(-19.,2.95984249180893E-15,-3.33934269125535E-16));
#201=CARTESIAN_POINT('Ctrl Pts',(-19.,2.95984249180893E-15,0.));
#202=CARTESIAN_POINT('Ctrl Pts',(-19.,2.95984249180893E-15,3.33934269125535E-16));
#203=CARTESIAN_POINT('Ctrl Pts',(-19.,2.6259082226834E-15,3.33934269125535E-16));
#204=CARTESIAN_POINT('Ctrl Pts',(-18.9767503345842,2.62269498649446E-15,
4.98380984246117));
#205=CARTESIAN_POINT('Ctrl Pts',(-18.9767503345842,-4.98380984246117,4.98380984246117));
#206=CARTESIAN_POINT('Ctrl Pts',(-18.9767503345842,-4.98380984246117,0.));
#207=CARTESIAN_POINT('Ctrl Pts',(-18.9767503345842,-4.98380984246117,-4.98380984246117));
#208=CARTESIAN_POINT('Ctrl Pts',(-18.9767503345842,2.62269498649446E-15,
-4.98380984246117));
#209=CARTESIAN_POINT('Ctrl Pts',(-18.9767503345842,4.98380984246117,-4.98380984246117));
#210=CARTESIAN_POINT('Ctrl Pts',(-18.9767503345842,4.98380984246118,0.));
#211=CARTESIAN_POINT('Ctrl Pts',(-18.9767503345842,4.98380984246117,4.98380984246117));
#212=CARTESIAN_POINT('Ctrl Pts',(-18.9767503345842,2.62269498649446E-15,
4.98380984246117));
#213=CARTESIAN_POINT('Ctrl Pts',(-14.,1.93487974302987E-15,5.25));
#214=CARTESIAN_POINT('Ctrl Pts',(-14.,-5.24999999999999,5.25));
#215=CARTESIAN_POINT('Ctrl Pts',(-14.,-5.25,2.46519032881566E-31));
#216=CARTESIAN_POINT('Ctrl Pts',(-14.,-5.24999999999999,-5.25));
#217=CARTESIAN_POINT('Ctrl Pts',(-14.,1.93487974302987E-15,-5.25));
#218=CARTESIAN_POINT('Ctrl Pts',(-14.,5.25,-5.25));
#219=CARTESIAN_POINT('Ctrl Pts',(-14.,5.25,-2.46519032881566E-31));
#220=CARTESIAN_POINT('Ctrl Pts',(-14.,5.25,5.25));
#221=CARTESIAN_POINT('Ctrl Pts',(-14.,1.93487974302987E-15,5.25));
#222=CARTESIAN_POINT('',(-14.,5.25,0.));
#223=CARTESIAN_POINT('',(-14.,1.93487974302987E-15,5.25));
#224=CARTESIAN_POINT('Origin',(-14.,1.93487974302987E-15,0.));
#225=CARTESIAN_POINT('Origin',(-14.,1.93487974302987E-15,0.));
#226=CARTESIAN_POINT('',(-19.,-1.01547225703948E-15,0.));
#227=CARTESIAN_POINT('Ctrl Pts',(-14.,1.93487974302987E-15,5.25));
#228=CARTESIAN_POINT('Ctrl Pts',(-18.9767503345842,2.62269498649446E-15,
4.98380984246117));
#229=CARTESIAN_POINT('Ctrl Pts',(-19.,2.6259082226834E-15,3.33934269125535E-16));
#230=CARTESIAN_POINT('Origin',(-14.,2.5,0.));
#231=CARTESIAN_POINT('',(-14.,2.5,0.));
#232=CARTESIAN_POINT('Origin',(-14.,1.93487974302987E-15,0.));
#233=CARTESIAN_POINT('Origin',(-7.25,1.00199129549761E-15,0.));
#234=UNCERTAINTY_MEASURE_WITH_UNIT(LENGTH_MEASURE(0.01),#238,
'DISTANCE_ACCURACY_VALUE',
'Maximum model space distance between geometric entities at asserted c
onnectivities');
#235=UNCERTAINTY_MEASURE_WITH_UNIT(LENGTH_MEASURE(1.E-6),#238,
'DISTANCE_ACCURACY_VALUE',
'Maximum model space distance between geometric entities at asserted c
onnectivities');
#236=(
GEOMETRIC_REPRESENTATION_CONTEXT(3)
GLOBAL_UNCERTAINTY_ASSIGNED_CONTEXT((#234))
GLOBAL_UNIT_ASSIGNED_CONTEXT((#238,#241,#239))
REPRESENTATION_CONTEXT('','3D')
);
#237=(
GEOMETRIC_REPRESENTATION_CONTEXT(3)
GLOBAL_UNCERTAINTY_ASSIGNED_CONTEXT((#235))
GLOBAL_UNIT_ASSIGNED_CONTEXT((#238,#241,#239))
REPRESENTATION_CONTEXT('','3D')
);
#238=(
LENGTH_UNIT()
NAMED_UNIT(*)
SI_UNIT(.MILLI.,.METRE.)
);
#239=(
NAMED_UNIT(*)
SI_UNIT($,.STERADIAN.)
SOLID_ANGLE_UNIT()
);
#240=DIMENSIONAL_EXPONENTS(0.,0.,0.,0.,0.,0.,0.);
#241=(
CONVERSION_BASED_UNIT('degree',#243)
NAMED_UNIT(#240)
PLANE_ANGLE_UNIT()
);
#242=(
NAMED_UNIT(*)
PLANE_ANGLE_UNIT()
SI_UNIT($,.RADIAN.)
);
#243=PLANE_ANGLE_MEASURE_WITH_UNIT(PLANE_ANGLE_MEASURE(0.01745329252),#242);
#244=SHAPE_DEFINITION_REPRESENTATION(#245,#246);
#245=PRODUCT_DEFINITION_SHAPE('',$,#248);
#246=SHAPE_REPRESENTATION('',(#122),#236);
#247=PRODUCT_DEFINITION_CONTEXT('part definition',#252,'design');
#248=PRODUCT_DEFINITION('72007409DS',
'Blindstopfen-01-BT-0002-72007409DS',#249,#247);
#249=PRODUCT_DEFINITION_FORMATION('',$,#254);
#250=PRODUCT_RELATED_PRODUCT_CATEGORY(
'Blindstopfen-01-BT-0002-72007409DS',
'Blindstopfen-01-BT-0002-72007409DS',(#254));
#251=APPLICATION_PROTOCOL_DEFINITION('international standard',
'automotive_design',2009,#252);
#252=APPLICATION_CONTEXT(
'Core Data for Automotive Mechanical Design Process');
#253=PRODUCT_CONTEXT('part definition',#252,'mechanical');
#254=PRODUCT('72007409DS','Blindstopfen-01-BT-0002-72007409DS',
'Blindstopfen PG 9',(#253));
#255=PRESENTATION_STYLE_ASSIGNMENT((#256));
#256=SURFACE_STYLE_USAGE(.BOTH.,#257);
#257=SURFACE_SIDE_STYLE('',(#258));
#258=SURFACE_STYLE_FILL_AREA(#259);
#259=FILL_AREA_STYLE('',(#260));
#260=FILL_AREA_STYLE_COLOUR('',#261);
#261=COLOUR_RGB('',0.749019607843137,0.749019607843137,0.749019607843137);
ENDSEC;
END-ISO-10303-21;
