ISO-10303-21;
HEADER;
/* Generated by software containing ST-Developer
 * from STEP Tools, Inc. (www.steptools.com) 
 */

FILE_DESCRIPTION(
/* description */ ('Blindstopfen PG48'),
/* implementation_level */ '2;1');

FILE_NAME(
/* name */ 
'Z:\\Inventor\\Blindstopfen\\Blindstopfen-Standard\\72007448-RST.stp',
/* time_stamp */ '2022-02-08T14:05:58+01:00',
/* author */ ('sl'),
/* organization */ (''),
/* preprocessor_version */ 'ST-DEVELOPER v16.5',
/* originating_system */ 'Autodesk Inventor 2017',
/* authorisation */ '');

FILE_SCHEMA (('AUTOMOTIVE_DESIGN { 1 0 10303 214 3 1 1 }'));
ENDSEC;

DATA;
#10=MECHANICAL_DESIGN_GEOMETRIC_PRESENTATION_REPRESENTATION('',(#13),#311);
#11=SHAPE_REPRESENTATION_RELATIONSHIP('SRR','None',#320,#12);
#12=ADVANCED_BREP_SHAPE_REPRESENTATION('',(#14),#310);
#13=STYLED_ITEM('',(#329),#14);
#14=MANIFOLD_SOLID_BREP('Volumenk\X\F6rper1',#140);
#15=(
BOUNDED_CURVE()
B_SPLINE_CURVE(2,(#258,#259,#260),.UNSPECIFIED.,.F.,.F.)
B_SPLINE_CURVE_WITH_KNOTS((3,3),(-3.41494099050577E-16,1.5707963267949),
 .UNSPECIFIED.)
CURVE()
GEOMETRIC_REPRESENTATION_ITEM()
RATIONAL_B_SPLINE_CURVE((1.,0.707106781186547,1.))
REPRESENTATION_ITEM('')
);
#16=(
BOUNDED_CURVE()
B_SPLINE_CURVE(2,(#301,#302,#303),.UNSPECIFIED.,.F.,.F.)
B_SPLINE_CURVE_WITH_KNOTS((3,3),(0.0123459926465937,1.5707963267949),
 .UNSPECIFIED.)
CURVE()
GEOMETRIC_REPRESENTATION_ITEM()
RATIONAL_B_SPLINE_CURVE((1.,0.71145824860365,1.))
REPRESENTATION_ITEM('')
);
#17=(
BOUNDED_SURFACE()
B_SPLINE_SURFACE(2,2,((#230,#231,#232,#233,#234,#235,#236,#237,#238),(#239,
#240,#241,#242,#243,#244,#245,#246,#247),(#248,#249,#250,#251,#252,#253,
#254,#255,#256)),.UNSPECIFIED.,.F.,.T.,.F.)
B_SPLINE_SURFACE_WITH_KNOTS((3,3),(3,2,2,2,3),(-1.5707963267949,3.41494099050577E-16),
(-3.14159265358979,-1.5707963267949,0.,1.5707963267949,3.14159265358979),
 .UNSPECIFIED.)
GEOMETRIC_REPRESENTATION_ITEM()
RATIONAL_B_SPLINE_SURFACE(((1.,0.707106781186548,1.,0.707106781186548,1.,
0.707106781186548,1.,0.707106781186548,1.),(0.707106781186547,0.499999999999999,
0.707106781186547,0.499999999999999,0.707106781186547,0.499999999999999,
0.707106781186547,0.499999999999999,0.707106781186547),(1.,0.707106781186548,
1.,0.707106781186548,1.,0.707106781186548,1.,0.707106781186548,1.)))
REPRESENTATION_ITEM('')
SURFACE()
);
#18=(
BOUNDED_SURFACE()
B_SPLINE_SURFACE(2,2,((#270,#271,#272,#273,#274,#275,#276,#277,#278),(#279,
#280,#281,#282,#283,#284,#285,#286,#287),(#288,#289,#290,#291,#292,#293,
#294,#295,#296)),.UNSPECIFIED.,.F.,.T.,.F.)
B_SPLINE_SURFACE_WITH_KNOTS((3,3),(3,2,2,2,3),(-1.5707963267949,-0.0123459926465937),
(-3.14159265358979,-1.5707963267949,0.,1.5707963267949,3.14159265358979),
 .UNSPECIFIED.)
GEOMETRIC_REPRESENTATION_ITEM()
RATIONAL_B_SPLINE_SURFACE(((1.,0.707106781186548,1.,0.707106781186548,1.,
0.707106781186548,1.,0.707106781186548,1.),(0.71145824860365,0.503076952118745,
0.71145824860365,0.503076952118745,0.71145824860365,0.503076952118745,0.71145824860365,
0.503076952118745,0.71145824860365),(1.,0.707106781186548,1.,0.707106781186548,
1.,0.707106781186548,1.,0.707106781186548,1.)))
REPRESENTATION_ITEM('')
SURFACE()
);
#19=CYLINDRICAL_SURFACE('',#155,19.8);
#20=CYLINDRICAL_SURFACE('',#168,22.1);
#21=TOROIDAL_SURFACE('',#153,19.85,0.0500000000000008);
#22=PLANE('',#151);
#23=PLANE('',#160);
#24=PLANE('',#161);
#25=PLANE('',#166);
#26=FACE_BOUND('',#43,.T.);
#27=FACE_BOUND('',#45,.T.);
#28=FACE_BOUND('',#47,.T.);
#29=FACE_BOUND('',#49,.T.);
#30=FACE_BOUND('',#55,.T.);
#31=FACE_BOUND('',#57,.T.);
#32=FACE_OUTER_BOUND('',#42,.T.);
#33=FACE_OUTER_BOUND('',#44,.T.);
#34=FACE_OUTER_BOUND('',#46,.T.);
#35=FACE_OUTER_BOUND('',#48,.T.);
#36=FACE_OUTER_BOUND('',#50,.T.);
#37=FACE_OUTER_BOUND('',#51,.T.);
#38=FACE_OUTER_BOUND('',#52,.T.);
#39=FACE_OUTER_BOUND('',#53,.T.);
#40=FACE_OUTER_BOUND('',#54,.T.);
#41=FACE_OUTER_BOUND('',#56,.T.);
#42=EDGE_LOOP('',(#99));
#43=EDGE_LOOP('',(#100));
#44=EDGE_LOOP('',(#101));
#45=EDGE_LOOP('',(#102));
#46=EDGE_LOOP('',(#103));
#47=EDGE_LOOP('',(#104));
#48=EDGE_LOOP('',(#105,#106));
#49=EDGE_LOOP('',(#107));
#50=EDGE_LOOP('',(#108,#109,#110,#111,#112,#113));
#51=EDGE_LOOP('',(#114,#115));
#52=EDGE_LOOP('',(#116,#117));
#53=EDGE_LOOP('',(#118,#119,#120,#121,#122,#123));
#54=EDGE_LOOP('',(#124,#125));
#55=EDGE_LOOP('',(#126));
#56=EDGE_LOOP('',(#127));
#57=EDGE_LOOP('',(#128));
#58=CIRCLE('',#149,21.1);
#59=CIRCLE('',#150,22.1);
#60=CIRCLE('',#152,19.85);
#61=CIRCLE('',#154,19.8);
#62=CIRCLE('',#156,19.8);
#63=CIRCLE('',#157,19.8);
#64=CIRCLE('',#158,3.80000000000001);
#65=CIRCLE('',#159,3.80000000000001);
#66=CIRCLE('',#162,9.30123461494674);
#67=CIRCLE('',#163,9.30123461494674);
#68=CIRCLE('',#164,25.5);
#69=CIRCLE('',#165,25.5);
#70=CIRCLE('',#167,22.1);
#71=VERTEX_POINT('',#215);
#72=VERTEX_POINT('',#217);
#73=VERTEX_POINT('',#220);
#74=VERTEX_POINT('',#223);
#75=VERTEX_POINT('',#226);
#76=VERTEX_POINT('',#227);
#77=VERTEX_POINT('',#257);
#78=VERTEX_POINT('',#261);
#79=VERTEX_POINT('',#266);
#80=VERTEX_POINT('',#267);
#81=VERTEX_POINT('',#297);
#82=VERTEX_POINT('',#298);
#83=VERTEX_POINT('',#305);
#84=EDGE_CURVE('',#71,#71,#58,.T.);
#85=EDGE_CURVE('',#72,#72,#59,.T.);
#86=EDGE_CURVE('',#73,#73,#60,.T.);
#87=EDGE_CURVE('',#74,#74,#61,.T.);
#88=EDGE_CURVE('',#75,#76,#62,.T.);
#89=EDGE_CURVE('',#76,#75,#63,.T.);
#90=EDGE_CURVE('',#76,#77,#15,.T.);
#91=EDGE_CURVE('',#78,#77,#64,.T.);
#92=EDGE_CURVE('',#77,#78,#65,.T.);
#93=EDGE_CURVE('',#79,#80,#66,.T.);
#94=EDGE_CURVE('',#80,#79,#67,.T.);
#95=EDGE_CURVE('',#81,#82,#68,.T.);
#96=EDGE_CURVE('',#82,#81,#69,.T.);
#97=EDGE_CURVE('',#82,#80,#16,.T.);
#98=EDGE_CURVE('',#83,#83,#70,.T.);
#99=ORIENTED_EDGE('',*,*,#84,.F.);
#100=ORIENTED_EDGE('',*,*,#85,.T.);
#101=ORIENTED_EDGE('',*,*,#84,.T.);
#102=ORIENTED_EDGE('',*,*,#86,.F.);
#103=ORIENTED_EDGE('',*,*,#87,.F.);
#104=ORIENTED_EDGE('',*,*,#86,.T.);
#105=ORIENTED_EDGE('',*,*,#88,.F.);
#106=ORIENTED_EDGE('',*,*,#89,.F.);
#107=ORIENTED_EDGE('',*,*,#87,.T.);
#108=ORIENTED_EDGE('',*,*,#88,.T.);
#109=ORIENTED_EDGE('',*,*,#90,.T.);
#110=ORIENTED_EDGE('',*,*,#91,.F.);
#111=ORIENTED_EDGE('',*,*,#92,.F.);
#112=ORIENTED_EDGE('',*,*,#90,.F.);
#113=ORIENTED_EDGE('',*,*,#89,.T.);
#114=ORIENTED_EDGE('',*,*,#91,.T.);
#115=ORIENTED_EDGE('',*,*,#92,.T.);
#116=ORIENTED_EDGE('',*,*,#93,.F.);
#117=ORIENTED_EDGE('',*,*,#94,.F.);
#118=ORIENTED_EDGE('',*,*,#95,.F.);
#119=ORIENTED_EDGE('',*,*,#96,.F.);
#120=ORIENTED_EDGE('',*,*,#97,.T.);
#121=ORIENTED_EDGE('',*,*,#94,.T.);
#122=ORIENTED_EDGE('',*,*,#93,.T.);
#123=ORIENTED_EDGE('',*,*,#97,.F.);
#124=ORIENTED_EDGE('',*,*,#95,.T.);
#125=ORIENTED_EDGE('',*,*,#96,.T.);
#126=ORIENTED_EDGE('',*,*,#98,.F.);
#127=ORIENTED_EDGE('',*,*,#85,.F.);
#128=ORIENTED_EDGE('',*,*,#98,.T.);
#129=CONICAL_SURFACE('',#148,21.6,45.);
#130=ADVANCED_FACE('',(#32,#26),#129,.T.);
#131=ADVANCED_FACE('',(#33,#27),#22,.T.);
#132=ADVANCED_FACE('',(#34,#28),#21,.T.);
#133=ADVANCED_FACE('',(#35,#29),#19,.F.);
#134=ADVANCED_FACE('',(#36),#17,.T.);
#135=ADVANCED_FACE('',(#37),#23,.T.);
#136=ADVANCED_FACE('',(#38),#24,.T.);
#137=ADVANCED_FACE('',(#39),#18,.F.);
#138=ADVANCED_FACE('',(#40,#30),#25,.T.);
#139=ADVANCED_FACE('',(#41,#31),#20,.T.);
#140=CLOSED_SHELL('',(#130,#131,#132,#133,#134,#135,#136,#137,#138,#139));
#141=DATE_TIME_ROLE('creation_date');
#142=APPLIED_DATE_AND_TIME_ASSIGNMENT(#143,#141,(#322));
#143=DATE_AND_TIME(#144,#145);
#144=CALENDAR_DATE(2020,26,10);
#145=LOCAL_TIME(23,0,0.,#146);
#146=COORDINATED_UNIVERSAL_TIME_OFFSET(0,0,.BEHIND.);
#147=AXIS2_PLACEMENT_3D('placement',#213,#169,#170);
#148=AXIS2_PLACEMENT_3D('',#214,#171,#172);
#149=AXIS2_PLACEMENT_3D('',#216,#173,#174);
#150=AXIS2_PLACEMENT_3D('',#218,#175,#176);
#151=AXIS2_PLACEMENT_3D('',#219,#177,#178);
#152=AXIS2_PLACEMENT_3D('',#221,#179,#180);
#153=AXIS2_PLACEMENT_3D('',#222,#181,#182);
#154=AXIS2_PLACEMENT_3D('',#224,#183,#184);
#155=AXIS2_PLACEMENT_3D('',#225,#185,#186);
#156=AXIS2_PLACEMENT_3D('',#228,#187,#188);
#157=AXIS2_PLACEMENT_3D('',#229,#189,#190);
#158=AXIS2_PLACEMENT_3D('',#262,#191,#192);
#159=AXIS2_PLACEMENT_3D('',#263,#193,#194);
#160=AXIS2_PLACEMENT_3D('',#264,#195,#196);
#161=AXIS2_PLACEMENT_3D('',#265,#197,#198);
#162=AXIS2_PLACEMENT_3D('',#268,#199,#200);
#163=AXIS2_PLACEMENT_3D('',#269,#201,#202);
#164=AXIS2_PLACEMENT_3D('',#299,#203,#204);
#165=AXIS2_PLACEMENT_3D('',#300,#205,#206);
#166=AXIS2_PLACEMENT_3D('',#304,#207,#208);
#167=AXIS2_PLACEMENT_3D('',#306,#209,#210);
#168=AXIS2_PLACEMENT_3D('',#307,#211,#212);
#169=DIRECTION('axis',(0.,0.,1.));
#170=DIRECTION('refdir',(1.,0.,0.));
#171=DIRECTION('center_axis',(-1.,-2.75954827515618E-16,0.));
#172=DIRECTION('ref_axis',(-3.01418015735337E-16,1.,0.));
#173=DIRECTION('center_axis',(1.,2.75954827515618E-16,0.));
#174=DIRECTION('ref_axis',(0.,0.,-1.));
#175=DIRECTION('center_axis',(1.,2.75954827515618E-16,0.));
#176=DIRECTION('ref_axis',(0.,0.,-1.));
#177=DIRECTION('center_axis',(1.,2.75954827515618E-16,0.));
#178=DIRECTION('ref_axis',(0.,0.,-1.));
#179=DIRECTION('center_axis',(1.,2.75954827515618E-16,0.));
#180=DIRECTION('ref_axis',(0.,0.,-1.));
#181=DIRECTION('center_axis',(1.,2.75954827515618E-16,0.));
#182=DIRECTION('ref_axis',(0.,0.,-1.));
#183=DIRECTION('center_axis',(1.,2.75954827515618E-16,0.));
#184=DIRECTION('ref_axis',(0.,0.,-1.));
#185=DIRECTION('center_axis',(1.,2.75954827515618E-16,0.));
#186=DIRECTION('ref_axis',(-3.01418015735337E-16,1.,0.));
#187=DIRECTION('center_axis',(1.,2.75954827515618E-16,0.));
#188=DIRECTION('ref_axis',(0.,0.,-1.));
#189=DIRECTION('center_axis',(1.,2.75954827515618E-16,0.));
#190=DIRECTION('ref_axis',(0.,0.,-1.));
#191=DIRECTION('center_axis',(1.,2.75954827515618E-16,0.));
#192=DIRECTION('ref_axis',(0.,0.,-1.));
#193=DIRECTION('center_axis',(1.,2.75954827515618E-16,0.));
#194=DIRECTION('ref_axis',(0.,0.,-1.));
#195=DIRECTION('center_axis',(1.,2.75954827515618E-16,0.));
#196=DIRECTION('ref_axis',(0.,0.,-1.));
#197=DIRECTION('center_axis',(-1.,-2.75954827515618E-16,0.));
#198=DIRECTION('ref_axis',(0.,0.,1.));
#199=DIRECTION('center_axis',(1.,2.75954827515618E-16,0.));
#200=DIRECTION('ref_axis',(0.,0.,-1.));
#201=DIRECTION('center_axis',(1.,2.75954827515618E-16,0.));
#202=DIRECTION('ref_axis',(0.,0.,-1.));
#203=DIRECTION('center_axis',(1.,2.75954827515618E-16,0.));
#204=DIRECTION('ref_axis',(0.,0.,-1.));
#205=DIRECTION('center_axis',(1.,2.75954827515618E-16,0.));
#206=DIRECTION('ref_axis',(0.,0.,-1.));
#207=DIRECTION('center_axis',(1.,2.75954827515618E-16,0.));
#208=DIRECTION('ref_axis',(0.,0.,-1.));
#209=DIRECTION('center_axis',(1.,2.75954827515618E-16,0.));
#210=DIRECTION('ref_axis',(0.,0.,-1.));
#211=DIRECTION('center_axis',(1.,2.75954827515618E-16,0.));
#212=DIRECTION('ref_axis',(-3.01418015735337E-16,1.,0.));
#213=CARTESIAN_POINT('',(0.,0.,0.));
#214=CARTESIAN_POINT('Origin',(-0.499999999999994,-1.37977413757807E-16,
0.));
#215=CARTESIAN_POINT('',(0.,21.1,0.));
#216=CARTESIAN_POINT('Origin',(6.66133814775094E-15,1.97215226305253E-30,
0.));
#217=CARTESIAN_POINT('',(-1.,22.1,0.));
#218=CARTESIAN_POINT('Origin',(-0.999999999999994,-2.75954827515616E-16,
0.));
#219=CARTESIAN_POINT('Origin',(0.,19.85,0.));
#220=CARTESIAN_POINT('',(0.,19.85,0.));
#221=CARTESIAN_POINT('Origin',(4.44089209850063E-15,9.86076131526265E-31,
0.));
#222=CARTESIAN_POINT('Origin',(-0.0499999999999967,-1.37977413757799E-17,
0.));
#223=CARTESIAN_POINT('',(-0.0500000000000001,19.8,0.));
#224=CARTESIAN_POINT('Origin',(-0.0499999999999967,-1.37977413757799E-17,
0.));
#225=CARTESIAN_POINT('Origin',(-6.275,-1.7316165426605E-15,0.));
#226=CARTESIAN_POINT('',(-12.5,19.8,0.));
#227=CARTESIAN_POINT('',(-12.5,-3.44943534394522E-15,19.8));
#228=CARTESIAN_POINT('Origin',(-12.5,-3.44943534394522E-15,0.));
#229=CARTESIAN_POINT('Origin',(-12.5,-3.44943534394522E-15,0.));
#230=CARTESIAN_POINT('Ctrl Pts',(-28.5,-7.8647125841951E-15,3.80000000000001));
#231=CARTESIAN_POINT('Ctrl Pts',(-28.5,-3.80000000000002,3.80000000000001));
#232=CARTESIAN_POINT('Ctrl Pts',(-28.5,-3.80000000000002,0.));
#233=CARTESIAN_POINT('Ctrl Pts',(-28.5,-3.80000000000002,-3.80000000000001));
#234=CARTESIAN_POINT('Ctrl Pts',(-28.5,-7.8647125841951E-15,-3.80000000000001));
#235=CARTESIAN_POINT('Ctrl Pts',(-28.5,3.8,-3.80000000000001));
#236=CARTESIAN_POINT('Ctrl Pts',(-28.5,3.8,0.));
#237=CARTESIAN_POINT('Ctrl Pts',(-28.5,3.8,3.80000000000001));
#238=CARTESIAN_POINT('Ctrl Pts',(-28.5,-7.8647125841951E-15,3.80000000000001));
#239=CARTESIAN_POINT('Ctrl Pts',(-28.5,-7.8647125841951E-15,19.8));
#240=CARTESIAN_POINT('Ctrl Pts',(-28.5,-19.8,19.8));
#241=CARTESIAN_POINT('Ctrl Pts',(-28.5,-19.8,-9.86076131526265E-31));
#242=CARTESIAN_POINT('Ctrl Pts',(-28.5,-19.8,-19.8));
#243=CARTESIAN_POINT('Ctrl Pts',(-28.5,-7.8647125841951E-15,-19.8));
#244=CARTESIAN_POINT('Ctrl Pts',(-28.5,19.8,-19.8));
#245=CARTESIAN_POINT('Ctrl Pts',(-28.5,19.8,9.86076131526265E-31));
#246=CARTESIAN_POINT('Ctrl Pts',(-28.5,19.8,19.8));
#247=CARTESIAN_POINT('Ctrl Pts',(-28.5,-7.8647125841951E-15,19.8));
#248=CARTESIAN_POINT('Ctrl Pts',(-12.5,-3.44943534394522E-15,19.8));
#249=CARTESIAN_POINT('Ctrl Pts',(-12.5,-19.8,19.8));
#250=CARTESIAN_POINT('Ctrl Pts',(-12.5,-19.8,-4.93038065763132E-31));
#251=CARTESIAN_POINT('Ctrl Pts',(-12.5,-19.8,-19.8));
#252=CARTESIAN_POINT('Ctrl Pts',(-12.5,-3.44943534394522E-15,-19.8));
#253=CARTESIAN_POINT('Ctrl Pts',(-12.5,19.8,-19.8));
#254=CARTESIAN_POINT('Ctrl Pts',(-12.5,19.8,4.93038065763132E-31));
#255=CARTESIAN_POINT('Ctrl Pts',(-12.5,19.8,19.8));
#256=CARTESIAN_POINT('Ctrl Pts',(-12.5,-3.44943534394522E-15,19.8));
#257=CARTESIAN_POINT('',(-28.5,-7.8647125841951E-15,3.80000000000001));
#258=CARTESIAN_POINT('Ctrl Pts',(-12.5,-3.44943534394522E-15,19.8));
#259=CARTESIAN_POINT('Ctrl Pts',(-28.5,-7.8647125841951E-15,19.8));
#260=CARTESIAN_POINT('Ctrl Pts',(-28.5,-7.8647125841951E-15,3.80000000000001));
#261=CARTESIAN_POINT('',(-28.5,3.8,0.));
#262=CARTESIAN_POINT('Origin',(-28.5,-7.8647125841951E-15,0.));
#263=CARTESIAN_POINT('Origin',(-28.5,-7.8647125841951E-15,0.));
#264=CARTESIAN_POINT('Origin',(-28.5,-7.7715611723761E-15,0.));
#265=CARTESIAN_POINT('Origin',(-38.5,9.30123461494673,0.));
#266=CARTESIAN_POINT('',(-38.5,9.30123461494673,0.));
#267=CARTESIAN_POINT('',(-38.5,-1.06242608593513E-14,9.30123461494674));
#268=CARTESIAN_POINT('Origin',(-38.5,-1.06242608593513E-14,0.));
#269=CARTESIAN_POINT('Origin',(-38.5,-1.06242608593513E-14,0.));
#270=CARTESIAN_POINT('Ctrl Pts',(-38.5,-1.06242608593513E-14,9.30123461494674));
#271=CARTESIAN_POINT('Ctrl Pts',(-38.5,-9.30123461494675,9.30123461494674));
#272=CARTESIAN_POINT('Ctrl Pts',(-38.5,-9.30123461494675,0.));
#273=CARTESIAN_POINT('Ctrl Pts',(-38.5,-9.30123461494675,-9.30123461494674));
#274=CARTESIAN_POINT('Ctrl Pts',(-38.5,-1.06242608593513E-14,-9.30123461494674));
#275=CARTESIAN_POINT('Ctrl Pts',(-38.5,9.30123461494673,-9.30123461494674));
#276=CARTESIAN_POINT('Ctrl Pts',(-38.5,9.30123461494673,0.));
#277=CARTESIAN_POINT('Ctrl Pts',(-38.5,9.30123461494673,9.30123461494674));
#278=CARTESIAN_POINT('Ctrl Pts',(-38.5,-1.06242608593513E-14,9.30123461494674));
#279=CARTESIAN_POINT('Ctrl Pts',(-38.5,-1.06242608593513E-14,25.3024540806701));
#280=CARTESIAN_POINT('Ctrl Pts',(-38.5,-25.3024540806701,25.3024540806701));
#281=CARTESIAN_POINT('Ctrl Pts',(-38.5,-25.3024540806701,0.));
#282=CARTESIAN_POINT('Ctrl Pts',(-38.5,-25.3024540806701,-25.3024540806701));
#283=CARTESIAN_POINT('Ctrl Pts',(-38.5,-1.06242608593513E-14,-25.3024540806701));
#284=CARTESIAN_POINT('Ctrl Pts',(-38.5,25.3024540806701,-25.3024540806701));
#285=CARTESIAN_POINT('Ctrl Pts',(-38.5,25.3024540806701,0.));
#286=CARTESIAN_POINT('Ctrl Pts',(-38.5,25.3024540806701,25.3024540806701));
#287=CARTESIAN_POINT('Ctrl Pts',(-38.5,-1.06242608593513E-14,25.3024540806701));
#288=CARTESIAN_POINT('Ctrl Pts',(-22.5,-6.20898361910139E-15,25.5));
#289=CARTESIAN_POINT('Ctrl Pts',(-22.5,-25.5,25.5));
#290=CARTESIAN_POINT('Ctrl Pts',(-22.5,-25.5,0.));
#291=CARTESIAN_POINT('Ctrl Pts',(-22.5,-25.5,-25.5));
#292=CARTESIAN_POINT('Ctrl Pts',(-22.5,-6.20898361910139E-15,-25.5));
#293=CARTESIAN_POINT('Ctrl Pts',(-22.5,25.5,-25.5));
#294=CARTESIAN_POINT('Ctrl Pts',(-22.5,25.5,0.));
#295=CARTESIAN_POINT('Ctrl Pts',(-22.5,25.5,25.5));
#296=CARTESIAN_POINT('Ctrl Pts',(-22.5,-6.20898361910139E-15,25.5));
#297=CARTESIAN_POINT('',(-22.5,25.5,0.));
#298=CARTESIAN_POINT('',(-22.5,-6.20898361910139E-15,25.5));
#299=CARTESIAN_POINT('Origin',(-22.5,-6.20898361910139E-15,0.));
#300=CARTESIAN_POINT('Origin',(-22.5,-6.20898361910139E-15,0.));
#301=CARTESIAN_POINT('Ctrl Pts',(-22.5,-6.20898361910139E-15,25.5));
#302=CARTESIAN_POINT('Ctrl Pts',(-38.5,-1.06242608593513E-14,25.3024540806701));
#303=CARTESIAN_POINT('Ctrl Pts',(-38.5,-1.06242608593513E-14,9.30123461494674));
#304=CARTESIAN_POINT('Origin',(-22.5,22.1,0.));
#305=CARTESIAN_POINT('',(-22.5,22.1,0.));
#306=CARTESIAN_POINT('Origin',(-22.5,-6.20898361910139E-15,0.));
#307=CARTESIAN_POINT('Origin',(-11.75,-3.2424692233085E-15,0.));
#308=UNCERTAINTY_MEASURE_WITH_UNIT(LENGTH_MEASURE(0.01),#312,
'DISTANCE_ACCURACY_VALUE',
'Maximum model space distance between geometric entities at asserted c
onnectivities');
#309=UNCERTAINTY_MEASURE_WITH_UNIT(LENGTH_MEASURE(1.E-6),#312,
'DISTANCE_ACCURACY_VALUE',
'Maximum model space distance between geometric entities at asserted c
onnectivities');
#310=(
GEOMETRIC_REPRESENTATION_CONTEXT(3)
GLOBAL_UNCERTAINTY_ASSIGNED_CONTEXT((#308))
GLOBAL_UNIT_ASSIGNED_CONTEXT((#312,#315,#313))
REPRESENTATION_CONTEXT('','3D')
);
#311=(
GEOMETRIC_REPRESENTATION_CONTEXT(3)
GLOBAL_UNCERTAINTY_ASSIGNED_CONTEXT((#309))
GLOBAL_UNIT_ASSIGNED_CONTEXT((#312,#315,#313))
REPRESENTATION_CONTEXT('','3D')
);
#312=(
LENGTH_UNIT()
NAMED_UNIT(*)
SI_UNIT(.MILLI.,.METRE.)
);
#313=(
NAMED_UNIT(*)
SI_UNIT($,.STERADIAN.)
SOLID_ANGLE_UNIT()
);
#314=DIMENSIONAL_EXPONENTS(0.,0.,0.,0.,0.,0.,0.);
#315=(
CONVERSION_BASED_UNIT('degree',#317)
NAMED_UNIT(#314)
PLANE_ANGLE_UNIT()
);
#316=(
NAMED_UNIT(*)
PLANE_ANGLE_UNIT()
SI_UNIT($,.RADIAN.)
);
#317=PLANE_ANGLE_MEASURE_WITH_UNIT(PLANE_ANGLE_MEASURE(0.01745329252),#316);
#318=SHAPE_DEFINITION_REPRESENTATION(#319,#320);
#319=PRODUCT_DEFINITION_SHAPE('',$,#322);
#320=SHAPE_REPRESENTATION('',(#147),#310);
#321=PRODUCT_DEFINITION_CONTEXT('part definition',#326,'design');
#322=PRODUCT_DEFINITION('72007448','Blindstopfen-01-BT-0013-72007448',#323,
#321);
#323=PRODUCT_DEFINITION_FORMATION('',$,#328);
#324=PRODUCT_RELATED_PRODUCT_CATEGORY(
'Blindstopfen-01-BT-0013-72007448','Blindstopfen-01-BT-0013-72007448',(#328));
#325=APPLICATION_PROTOCOL_DEFINITION('international standard',
'automotive_design',2009,#326);
#326=APPLICATION_CONTEXT(
'Core Data for Automotive Mechanical Design Process');
#327=PRODUCT_CONTEXT('part definition',#326,'mechanical');
#328=PRODUCT('72007448','Blindstopfen-01-BT-0013-72007448',
'Blindstopfen PG48',(#327));
#329=PRESENTATION_STYLE_ASSIGNMENT((#330));
#330=SURFACE_STYLE_USAGE(.BOTH.,#331);
#331=SURFACE_SIDE_STYLE('',(#332));
#332=SURFACE_STYLE_FILL_AREA(#333);
#333=FILL_AREA_STYLE('',(#334));
#334=FILL_AREA_STYLE_COLOUR('',#335);
#335=COLOUR_RGB('',0.749019607843137,0.749019607843137,0.749019607843137);
ENDSEC;
END-ISO-10303-21;
