ISO-10303-21;
HEADER;
/* Generated by software containing ST-Developer
 * from STEP Tools, Inc. (www.steptools.com) 
 */

FILE_DESCRIPTION(
/* description */ ('Blindstopfen PG 7 (2-5/2-4)'),
/* implementation_level */ '2;1');

FILE_NAME(
/* name */ 
'Z:\\Inventor\\Blindstopfen\\Blindstopfen-DS\\73007407DS-RST.stp',
/* time_stamp */ '2022-02-08T15:14:35+01:00',
/* author */ ('sl'),
/* organization */ (''),
/* preprocessor_version */ 'ST-DEVELOPER v16.5',
/* originating_system */ 'Autodesk Inventor 2017',
/* authorisation */ '');

FILE_SCHEMA (('AUTOMOTIVE_DESIGN { 1 0 10303 214 3 1 1 }'));
ENDSEC;

DATA;
#10=MECHANICAL_DESIGN_GEOMETRIC_PRESENTATION_REPRESENTATION('',(#100,#99,
#97,#98,#101,#103,#102,#104,#105),#231);
#11=SHAPE_REPRESENTATION_RELATIONSHIP('SRR','None',#240,#12);
#12=ADVANCED_BREP_SHAPE_REPRESENTATION('',(#13),#230);
#13=MANIFOLD_SOLID_BREP('Volumenk\X\F6rper1',#114);
#14=SPHERICAL_SURFACE('',#133,4.645);
#15=(
BOUNDED_CURVE()
B_SPLINE_CURVE(2,(#214,#215,#216),.UNSPECIFIED.,.F.,.F.)
B_SPLINE_CURVE_WITH_KNOTS((3,3),(0.,1.5707963267949),.UNSPECIFIED.)
CURVE()
GEOMETRIC_REPRESENTATION_ITEM()
RATIONAL_B_SPLINE_CURVE((1.,0.707106781186546,1.))
REPRESENTATION_ITEM('')
);
#16=(
BOUNDED_SURFACE()
B_SPLINE_SURFACE(2,2,((#186,#187,#188,#189,#190,#191,#192,#193,#194),(#195,
#196,#197,#198,#199,#200,#201,#202,#203),(#204,#205,#206,#207,#208,#209,
#210,#211,#212)),.UNSPECIFIED.,.F.,.T.,.F.)
B_SPLINE_SURFACE_WITH_KNOTS((3,3),(3,2,2,2,3),(-1.5707963267949,0.),(-3.14159265358979,
-1.5707963267949,0.,1.5707963267949,3.14159265358979),.UNSPECIFIED.)
GEOMETRIC_REPRESENTATION_ITEM()
RATIONAL_B_SPLINE_SURFACE(((1.,0.707106781186548,1.,0.707106781186548,1.,
0.707106781186548,1.,0.707106781186548,1.),(0.707106781186546,0.499999999999999,
0.707106781186546,0.499999999999999,0.707106781186546,0.499999999999999,
0.707106781186546,0.499999999999999,0.707106781186546),(1.,0.707106781186548,
1.,0.707106781186548,1.,0.707106781186548,1.,0.707106781186548,1.)))
REPRESENTATION_ITEM('')
SURFACE()
);
#17=CYLINDRICAL_SURFACE('',#127,1.5);
#18=CYLINDRICAL_SURFACE('',#137,2.);
#19=PLANE('',#125);
#20=PLANE('',#132);
#21=PLANE('',#135);
#22=FACE_BOUND('',#36,.T.);
#23=FACE_BOUND('',#38,.T.);
#24=FACE_BOUND('',#40,.T.);
#25=FACE_BOUND('',#45,.T.);
#26=FACE_BOUND('',#47,.T.);
#27=FACE_OUTER_BOUND('',#35,.T.);
#28=FACE_OUTER_BOUND('',#37,.T.);
#29=FACE_OUTER_BOUND('',#39,.T.);
#30=FACE_OUTER_BOUND('',#41,.T.);
#31=FACE_OUTER_BOUND('',#42,.T.);
#32=FACE_OUTER_BOUND('',#43,.T.);
#33=FACE_OUTER_BOUND('',#44,.T.);
#34=FACE_OUTER_BOUND('',#46,.T.);
#35=EDGE_LOOP('',(#76));
#36=EDGE_LOOP('',(#77));
#37=EDGE_LOOP('',(#78));
#38=EDGE_LOOP('',(#79));
#39=EDGE_LOOP('',(#80,#81));
#40=EDGE_LOOP('',(#82));
#41=EDGE_LOOP('',(#83,#84,#85,#86,#87,#88));
#42=EDGE_LOOP('',(#89,#90));
#43=EDGE_LOOP('',(#91));
#44=EDGE_LOOP('',(#92));
#45=EDGE_LOOP('',(#93));
#46=EDGE_LOOP('',(#94));
#47=EDGE_LOOP('',(#95));
#48=CIRCLE('',#123,1.8);
#49=CIRCLE('',#124,2.);
#50=CIRCLE('',#126,1.5);
#51=CIRCLE('',#128,1.5);
#52=CIRCLE('',#129,1.5);
#53=CIRCLE('',#130,0.500000000000005);
#54=CIRCLE('',#131,0.500000000000005);
#55=CIRCLE('',#134,4.6);
#56=CIRCLE('',#136,2.);
#57=VERTEX_POINT('',#174);
#58=VERTEX_POINT('',#176);
#59=VERTEX_POINT('',#179);
#60=VERTEX_POINT('',#182);
#61=VERTEX_POINT('',#183);
#62=VERTEX_POINT('',#213);
#63=VERTEX_POINT('',#217);
#64=VERTEX_POINT('',#222);
#65=VERTEX_POINT('',#225);
#66=EDGE_CURVE('',#57,#57,#48,.T.);
#67=EDGE_CURVE('',#58,#58,#49,.T.);
#68=EDGE_CURVE('',#59,#59,#50,.T.);
#69=EDGE_CURVE('',#60,#61,#51,.T.);
#70=EDGE_CURVE('',#61,#60,#52,.T.);
#71=EDGE_CURVE('',#61,#62,#15,.T.);
#72=EDGE_CURVE('',#63,#62,#53,.T.);
#73=EDGE_CURVE('',#62,#63,#54,.T.);
#74=EDGE_CURVE('',#64,#64,#55,.T.);
#75=EDGE_CURVE('',#65,#65,#56,.T.);
#76=ORIENTED_EDGE('',*,*,#66,.F.);
#77=ORIENTED_EDGE('',*,*,#67,.T.);
#78=ORIENTED_EDGE('',*,*,#66,.T.);
#79=ORIENTED_EDGE('',*,*,#68,.F.);
#80=ORIENTED_EDGE('',*,*,#69,.F.);
#81=ORIENTED_EDGE('',*,*,#70,.F.);
#82=ORIENTED_EDGE('',*,*,#68,.T.);
#83=ORIENTED_EDGE('',*,*,#69,.T.);
#84=ORIENTED_EDGE('',*,*,#71,.T.);
#85=ORIENTED_EDGE('',*,*,#72,.F.);
#86=ORIENTED_EDGE('',*,*,#73,.F.);
#87=ORIENTED_EDGE('',*,*,#71,.F.);
#88=ORIENTED_EDGE('',*,*,#70,.T.);
#89=ORIENTED_EDGE('',*,*,#72,.T.);
#90=ORIENTED_EDGE('',*,*,#73,.T.);
#91=ORIENTED_EDGE('',*,*,#74,.F.);
#92=ORIENTED_EDGE('',*,*,#74,.T.);
#93=ORIENTED_EDGE('',*,*,#75,.F.);
#94=ORIENTED_EDGE('',*,*,#67,.F.);
#95=ORIENTED_EDGE('',*,*,#75,.T.);
#96=CONICAL_SURFACE('',#122,1.9,45.);
#97=STYLED_ITEM('',(#249),#106);
#98=STYLED_ITEM('',(#249),#107);
#99=STYLED_ITEM('',(#249),#108);
#100=STYLED_ITEM('',(#249),#109);
#101=STYLED_ITEM('',(#249),#110);
#102=STYLED_ITEM('',(#249),#111);
#103=STYLED_ITEM('',(#249),#112);
#104=STYLED_ITEM('',(#249),#113);
#105=STYLED_ITEM('',(#249),#13);
#106=ADVANCED_FACE('',(#27,#22),#96,.T.);
#107=ADVANCED_FACE('',(#28,#23),#19,.T.);
#108=ADVANCED_FACE('',(#29,#24),#17,.F.);
#109=ADVANCED_FACE('',(#30),#16,.T.);
#110=ADVANCED_FACE('',(#31),#20,.T.);
#111=ADVANCED_FACE('',(#32),#14,.T.);
#112=ADVANCED_FACE('',(#33,#25),#21,.T.);
#113=ADVANCED_FACE('',(#34,#26),#18,.T.);
#114=CLOSED_SHELL('',(#106,#107,#108,#109,#110,#111,#112,#113));
#115=DATE_TIME_ROLE('creation_date');
#116=APPLIED_DATE_AND_TIME_ASSIGNMENT(#117,#115,(#242));
#117=DATE_AND_TIME(#118,#119);
#118=CALENDAR_DATE(2022,7,2);
#119=LOCAL_TIME(23,0,0.,#120);
#120=COORDINATED_UNIVERSAL_TIME_OFFSET(0,0,.BEHIND.);
#121=AXIS2_PLACEMENT_3D('placement',#172,#138,#139);
#122=AXIS2_PLACEMENT_3D('',#173,#140,#141);
#123=AXIS2_PLACEMENT_3D('',#175,#142,#143);
#124=AXIS2_PLACEMENT_3D('',#177,#144,#145);
#125=AXIS2_PLACEMENT_3D('',#178,#146,#147);
#126=AXIS2_PLACEMENT_3D('',#180,#148,#149);
#127=AXIS2_PLACEMENT_3D('',#181,#150,#151);
#128=AXIS2_PLACEMENT_3D('',#184,#152,#153);
#129=AXIS2_PLACEMENT_3D('',#185,#154,#155);
#130=AXIS2_PLACEMENT_3D('',#218,#156,#157);
#131=AXIS2_PLACEMENT_3D('',#219,#158,#159);
#132=AXIS2_PLACEMENT_3D('',#220,#160,#161);
#133=AXIS2_PLACEMENT_3D('',#221,#162,#163);
#134=AXIS2_PLACEMENT_3D('',#223,#164,#165);
#135=AXIS2_PLACEMENT_3D('',#224,#166,#167);
#136=AXIS2_PLACEMENT_3D('',#226,#168,#169);
#137=AXIS2_PLACEMENT_3D('',#227,#170,#171);
#138=DIRECTION('axis',(0.,0.,1.));
#139=DIRECTION('refdir',(1.,0.,0.));
#140=DIRECTION('center_axis',(-1.,0.,0.));
#141=DIRECTION('ref_axis',(0.,1.,0.));
#142=DIRECTION('center_axis',(1.,0.,0.));
#143=DIRECTION('ref_axis',(0.,0.,-1.));
#144=DIRECTION('center_axis',(1.,0.,0.));
#145=DIRECTION('ref_axis',(0.,0.,-1.));
#146=DIRECTION('center_axis',(1.,0.,0.));
#147=DIRECTION('ref_axis',(0.,0.,-1.));
#148=DIRECTION('center_axis',(1.,0.,0.));
#149=DIRECTION('ref_axis',(0.,0.,-1.));
#150=DIRECTION('center_axis',(1.,0.,0.));
#151=DIRECTION('ref_axis',(0.,1.,0.));
#152=DIRECTION('center_axis',(1.,0.,0.));
#153=DIRECTION('ref_axis',(0.,0.,-1.));
#154=DIRECTION('center_axis',(1.,0.,0.));
#155=DIRECTION('ref_axis',(0.,0.,-1.));
#156=DIRECTION('center_axis',(1.,0.,0.));
#157=DIRECTION('ref_axis',(0.,0.,-1.));
#158=DIRECTION('center_axis',(1.,0.,0.));
#159=DIRECTION('ref_axis',(0.,0.,-1.));
#160=DIRECTION('center_axis',(1.,0.,0.));
#161=DIRECTION('ref_axis',(0.,0.,-1.));
#162=DIRECTION('center_axis',(0.,0.,1.));
#163=DIRECTION('ref_axis',(1.,0.,0.));
#164=DIRECTION('center_axis',(1.,0.,0.));
#165=DIRECTION('ref_axis',(0.,0.,-1.));
#166=DIRECTION('center_axis',(1.,0.,0.));
#167=DIRECTION('ref_axis',(0.,0.,-1.));
#168=DIRECTION('center_axis',(1.,0.,0.));
#169=DIRECTION('ref_axis',(0.,0.,-1.));
#170=DIRECTION('center_axis',(1.,0.,0.));
#171=DIRECTION('ref_axis',(0.,1.,0.));
#172=CARTESIAN_POINT('',(0.,0.,0.));
#173=CARTESIAN_POINT('Origin',(-0.1,0.,0.));
#174=CARTESIAN_POINT('',(0.,1.8,0.));
#175=CARTESIAN_POINT('Origin',(0.,0.,0.));
#176=CARTESIAN_POINT('',(-0.2,2.,0.));
#177=CARTESIAN_POINT('Origin',(-0.2,0.,0.));
#178=CARTESIAN_POINT('Origin',(0.,1.5,0.));
#179=CARTESIAN_POINT('',(0.,1.5,0.));
#180=CARTESIAN_POINT('Origin',(0.,0.,0.));
#181=CARTESIAN_POINT('Origin',(-5.,0.,0.));
#182=CARTESIAN_POINT('',(-10.,1.5,0.));
#183=CARTESIAN_POINT('',(-10.,0.,1.5));
#184=CARTESIAN_POINT('Origin',(-10.,0.,0.));
#185=CARTESIAN_POINT('Origin',(-10.,0.,0.));
#186=CARTESIAN_POINT('Ctrl Pts',(-11.,0.,0.500000000000005));
#187=CARTESIAN_POINT('Ctrl Pts',(-11.,-0.500000000000004,0.500000000000004));
#188=CARTESIAN_POINT('Ctrl Pts',(-11.,-0.500000000000005,0.));
#189=CARTESIAN_POINT('Ctrl Pts',(-11.,-0.500000000000004,-0.500000000000004));
#190=CARTESIAN_POINT('Ctrl Pts',(-11.,0.,-0.500000000000005));
#191=CARTESIAN_POINT('Ctrl Pts',(-11.,0.500000000000004,-0.500000000000004));
#192=CARTESIAN_POINT('Ctrl Pts',(-11.,0.500000000000005,0.));
#193=CARTESIAN_POINT('Ctrl Pts',(-11.,0.500000000000004,0.500000000000004));
#194=CARTESIAN_POINT('Ctrl Pts',(-11.,0.,0.500000000000005));
#195=CARTESIAN_POINT('Ctrl Pts',(-11.,0.,1.5));
#196=CARTESIAN_POINT('Ctrl Pts',(-11.,-1.5,1.5));
#197=CARTESIAN_POINT('Ctrl Pts',(-11.,-1.5,0.));
#198=CARTESIAN_POINT('Ctrl Pts',(-11.,-1.5,-1.5));
#199=CARTESIAN_POINT('Ctrl Pts',(-11.,0.,-1.5));
#200=CARTESIAN_POINT('Ctrl Pts',(-11.,1.5,-1.5));
#201=CARTESIAN_POINT('Ctrl Pts',(-11.,1.5,0.));
#202=CARTESIAN_POINT('Ctrl Pts',(-11.,1.5,1.5));
#203=CARTESIAN_POINT('Ctrl Pts',(-11.,0.,1.5));
#204=CARTESIAN_POINT('Ctrl Pts',(-10.,0.,1.5));
#205=CARTESIAN_POINT('Ctrl Pts',(-10.,-1.5,1.5));
#206=CARTESIAN_POINT('Ctrl Pts',(-10.,-1.5,0.));
#207=CARTESIAN_POINT('Ctrl Pts',(-10.,-1.5,-1.5));
#208=CARTESIAN_POINT('Ctrl Pts',(-10.,0.,-1.5));
#209=CARTESIAN_POINT('Ctrl Pts',(-10.,1.5,-1.5));
#210=CARTESIAN_POINT('Ctrl Pts',(-10.,1.5,0.));
#211=CARTESIAN_POINT('Ctrl Pts',(-10.,1.5,1.5));
#212=CARTESIAN_POINT('Ctrl Pts',(-10.,0.,1.5));
#213=CARTESIAN_POINT('',(-11.,0.,0.500000000000005));
#214=CARTESIAN_POINT('Ctrl Pts',(-10.,0.,1.5));
#215=CARTESIAN_POINT('Ctrl Pts',(-11.,0.,1.5));
#216=CARTESIAN_POINT('Ctrl Pts',(-11.,0.,0.500000000000005));
#217=CARTESIAN_POINT('',(-11.,0.500000000000005,0.));
#218=CARTESIAN_POINT('Origin',(-11.,0.,0.));
#219=CARTESIAN_POINT('Origin',(-11.,0.,0.));
#220=CARTESIAN_POINT('Origin',(-11.,1.94289029309402E-15,0.));
#221=CARTESIAN_POINT('Origin',(-11.355,5.55111512312578E-16,0.));
#222=CARTESIAN_POINT('',(-12.,4.6,0.));
#223=CARTESIAN_POINT('Origin',(-12.,0.,0.));
#224=CARTESIAN_POINT('Origin',(-12.,2.,0.));
#225=CARTESIAN_POINT('',(-12.,2.,0.));
#226=CARTESIAN_POINT('Origin',(-12.,0.,0.));
#227=CARTESIAN_POINT('Origin',(-6.1,0.,0.));
#228=UNCERTAINTY_MEASURE_WITH_UNIT(LENGTH_MEASURE(0.01),#232,
'DISTANCE_ACCURACY_VALUE',
'Maximum model space distance between geometric entities at asserted c
onnectivities');
#229=UNCERTAINTY_MEASURE_WITH_UNIT(LENGTH_MEASURE(1.E-6),#232,
'DISTANCE_ACCURACY_VALUE',
'Maximum model space distance between geometric entities at asserted c
onnectivities');
#230=(
GEOMETRIC_REPRESENTATION_CONTEXT(3)
GLOBAL_UNCERTAINTY_ASSIGNED_CONTEXT((#228))
GLOBAL_UNIT_ASSIGNED_CONTEXT((#232,#235,#233))
REPRESENTATION_CONTEXT('','3D')
);
#231=(
GEOMETRIC_REPRESENTATION_CONTEXT(3)
GLOBAL_UNCERTAINTY_ASSIGNED_CONTEXT((#229))
GLOBAL_UNIT_ASSIGNED_CONTEXT((#232,#235,#233))
REPRESENTATION_CONTEXT('','3D')
);
#232=(
LENGTH_UNIT()
NAMED_UNIT(*)
SI_UNIT(.MILLI.,.METRE.)
);
#233=(
NAMED_UNIT(*)
SI_UNIT($,.STERADIAN.)
SOLID_ANGLE_UNIT()
);
#234=DIMENSIONAL_EXPONENTS(0.,0.,0.,0.,0.,0.,0.);
#235=(
CONVERSION_BASED_UNIT('degree',#237)
NAMED_UNIT(#234)
PLANE_ANGLE_UNIT()
);
#236=(
NAMED_UNIT(*)
PLANE_ANGLE_UNIT()
SI_UNIT($,.RADIAN.)
);
#237=PLANE_ANGLE_MEASURE_WITH_UNIT(PLANE_ANGLE_MEASURE(0.01745329252),#236);
#238=SHAPE_DEFINITION_REPRESENTATION(#239,#240);
#239=PRODUCT_DEFINITION_SHAPE('',$,#242);
#240=SHAPE_REPRESENTATION('',(#121),#230);
#241=PRODUCT_DEFINITION_CONTEXT('part definition',#246,'design');
#242=PRODUCT_DEFINITION('73007407DS',
'Blindstopfen-01-BT-0001-73007407DS',#243,#241);
#243=PRODUCT_DEFINITION_FORMATION('',$,#248);
#244=PRODUCT_RELATED_PRODUCT_CATEGORY(
'Blindstopfen-01-BT-0001-73007407DS',
'Blindstopfen-01-BT-0001-73007407DS',(#248));
#245=APPLICATION_PROTOCOL_DEFINITION('international standard',
'automotive_design',2009,#246);
#246=APPLICATION_CONTEXT(
'Core Data for Automotive Mechanical Design Process');
#247=PRODUCT_CONTEXT('part definition',#246,'mechanical');
#248=PRODUCT('73007407DS','Blindstopfen-01-BT-0001-73007407DS',
'Blindstopfen PG 7 (2-5/2-4)',(#247));
#249=PRESENTATION_STYLE_ASSIGNMENT((#250));
#250=SURFACE_STYLE_USAGE(.BOTH.,#251);
#251=SURFACE_SIDE_STYLE('',(#252));
#252=SURFACE_STYLE_FILL_AREA(#253);
#253=FILL_AREA_STYLE('',(#254));
#254=FILL_AREA_STYLE_COLOUR('',#255);
#255=COLOUR_RGB('',0.,0.,0.);
ENDSEC;
END-ISO-10303-21;
