ISO-10303-21;
HEADER;
/* Generated by software containing ST-Developer
 * from STEP Tools, Inc. (www.steptools.com) 
 */

FILE_DESCRIPTION(
/* description */ ('Blindstopfen PG 16 (7-12)'),
/* implementation_level */ '2;1');

FILE_NAME(
/* name */ 
'Z:\\Inventor\\Blindstopfen\\Blindstopfen-DS\\73007416DS-RST.stp',
/* time_stamp */ '2022-02-08T15:08:01+01:00',
/* author */ ('sl'),
/* organization */ (''),
/* preprocessor_version */ 'ST-DEVELOPER v16.5',
/* originating_system */ 'Autodesk Inventor 2017',
/* authorisation */ '');

FILE_SCHEMA (('AUTOMOTIVE_DESIGN { 1 0 10303 214 3 1 1 }'));
ENDSEC;

DATA;
#10=MECHANICAL_DESIGN_GEOMETRIC_PRESENTATION_REPRESENTATION('',(#13),#195);
#11=SHAPE_REPRESENTATION_RELATIONSHIP('SRR','None',#204,#12);
#12=ADVANCED_BREP_SHAPE_REPRESENTATION('',(#14),#194);
#13=STYLED_ITEM('',(#213),#14);
#14=MANIFOLD_SOLID_BREP('Volumenk\X\F6rper1',#105);
#15=SPHERICAL_SURFACE('',#125,9.01470588235295);
#16=CYLINDRICAL_SURFACE('',#120,4.10000000000001);
#17=CYLINDRICAL_SURFACE('',#129,5.5);
#18=TOROIDAL_SURFACE('',#118,4.20000000000002,0.1);
#19=TOROIDAL_SURFACE('',#122,2.1,2.);
#20=PLANE('',#116);
#21=PLANE('',#124);
#22=PLANE('',#127);
#23=FACE_BOUND('',#40,.T.);
#24=FACE_BOUND('',#42,.T.);
#25=FACE_BOUND('',#44,.T.);
#26=FACE_BOUND('',#46,.T.);
#27=FACE_BOUND('',#48,.T.);
#28=FACE_BOUND('',#52,.T.);
#29=FACE_BOUND('',#54,.T.);
#30=FACE_OUTER_BOUND('',#39,.T.);
#31=FACE_OUTER_BOUND('',#41,.T.);
#32=FACE_OUTER_BOUND('',#43,.T.);
#33=FACE_OUTER_BOUND('',#45,.T.);
#34=FACE_OUTER_BOUND('',#47,.T.);
#35=FACE_OUTER_BOUND('',#49,.T.);
#36=FACE_OUTER_BOUND('',#50,.T.);
#37=FACE_OUTER_BOUND('',#51,.T.);
#38=FACE_OUTER_BOUND('',#53,.T.);
#39=EDGE_LOOP('',(#79));
#40=EDGE_LOOP('',(#80));
#41=EDGE_LOOP('',(#81));
#42=EDGE_LOOP('',(#82));
#43=EDGE_LOOP('',(#83));
#44=EDGE_LOOP('',(#84));
#45=EDGE_LOOP('',(#85));
#46=EDGE_LOOP('',(#86));
#47=EDGE_LOOP('',(#87));
#48=EDGE_LOOP('',(#88));
#49=EDGE_LOOP('',(#89));
#50=EDGE_LOOP('',(#90));
#51=EDGE_LOOP('',(#91));
#52=EDGE_LOOP('',(#92));
#53=EDGE_LOOP('',(#93));
#54=EDGE_LOOP('',(#94));
#55=CIRCLE('',#114,5.4);
#56=CIRCLE('',#115,5.5);
#57=CIRCLE('',#117,4.20000000000002);
#58=CIRCLE('',#119,4.10000000000001);
#59=CIRCLE('',#121,4.1);
#60=CIRCLE('',#123,2.1);
#61=CIRCLE('',#126,8.99999999999999);
#62=CIRCLE('',#128,5.5);
#63=VERTEX_POINT('',#168);
#64=VERTEX_POINT('',#170);
#65=VERTEX_POINT('',#173);
#66=VERTEX_POINT('',#176);
#67=VERTEX_POINT('',#179);
#68=VERTEX_POINT('',#182);
#69=VERTEX_POINT('',#186);
#70=VERTEX_POINT('',#189);
#71=EDGE_CURVE('',#63,#63,#55,.T.);
#72=EDGE_CURVE('',#64,#64,#56,.T.);
#73=EDGE_CURVE('',#65,#65,#57,.T.);
#74=EDGE_CURVE('',#66,#66,#58,.T.);
#75=EDGE_CURVE('',#67,#67,#59,.T.);
#76=EDGE_CURVE('',#68,#68,#60,.T.);
#77=EDGE_CURVE('',#69,#69,#61,.T.);
#78=EDGE_CURVE('',#70,#70,#62,.T.);
#79=ORIENTED_EDGE('',*,*,#71,.F.);
#80=ORIENTED_EDGE('',*,*,#72,.T.);
#81=ORIENTED_EDGE('',*,*,#71,.T.);
#82=ORIENTED_EDGE('',*,*,#73,.F.);
#83=ORIENTED_EDGE('',*,*,#74,.F.);
#84=ORIENTED_EDGE('',*,*,#73,.T.);
#85=ORIENTED_EDGE('',*,*,#75,.F.);
#86=ORIENTED_EDGE('',*,*,#74,.T.);
#87=ORIENTED_EDGE('',*,*,#76,.F.);
#88=ORIENTED_EDGE('',*,*,#75,.T.);
#89=ORIENTED_EDGE('',*,*,#76,.T.);
#90=ORIENTED_EDGE('',*,*,#77,.F.);
#91=ORIENTED_EDGE('',*,*,#77,.T.);
#92=ORIENTED_EDGE('',*,*,#78,.F.);
#93=ORIENTED_EDGE('',*,*,#72,.F.);
#94=ORIENTED_EDGE('',*,*,#78,.T.);
#95=CONICAL_SURFACE('',#113,5.45,45.);
#96=ADVANCED_FACE('',(#30,#23),#95,.T.);
#97=ADVANCED_FACE('',(#31,#24),#20,.T.);
#98=ADVANCED_FACE('',(#32,#25),#18,.T.);
#99=ADVANCED_FACE('',(#33,#26),#16,.F.);
#100=ADVANCED_FACE('',(#34,#27),#19,.F.);
#101=ADVANCED_FACE('',(#35),#21,.T.);
#102=ADVANCED_FACE('',(#36),#15,.T.);
#103=ADVANCED_FACE('',(#37,#28),#22,.T.);
#104=ADVANCED_FACE('',(#38,#29),#17,.T.);
#105=CLOSED_SHELL('',(#96,#97,#98,#99,#100,#101,#102,#103,#104));
#106=DATE_TIME_ROLE('creation_date');
#107=APPLIED_DATE_AND_TIME_ASSIGNMENT(#108,#106,(#206));
#108=DATE_AND_TIME(#109,#110);
#109=CALENDAR_DATE(2022,7,2);
#110=LOCAL_TIME(23,0,0.,#111);
#111=COORDINATED_UNIVERSAL_TIME_OFFSET(0,0,.BEHIND.);
#112=AXIS2_PLACEMENT_3D('placement',#166,#130,#131);
#113=AXIS2_PLACEMENT_3D('',#167,#132,#133);
#114=AXIS2_PLACEMENT_3D('',#169,#134,#135);
#115=AXIS2_PLACEMENT_3D('',#171,#136,#137);
#116=AXIS2_PLACEMENT_3D('',#172,#138,#139);
#117=AXIS2_PLACEMENT_3D('',#174,#140,#141);
#118=AXIS2_PLACEMENT_3D('',#175,#142,#143);
#119=AXIS2_PLACEMENT_3D('',#177,#144,#145);
#120=AXIS2_PLACEMENT_3D('',#178,#146,#147);
#121=AXIS2_PLACEMENT_3D('',#180,#148,#149);
#122=AXIS2_PLACEMENT_3D('',#181,#150,#151);
#123=AXIS2_PLACEMENT_3D('',#183,#152,#153);
#124=AXIS2_PLACEMENT_3D('',#184,#154,#155);
#125=AXIS2_PLACEMENT_3D('',#185,#156,#157);
#126=AXIS2_PLACEMENT_3D('',#187,#158,#159);
#127=AXIS2_PLACEMENT_3D('',#188,#160,#161);
#128=AXIS2_PLACEMENT_3D('',#190,#162,#163);
#129=AXIS2_PLACEMENT_3D('',#191,#164,#165);
#130=DIRECTION('axis',(0.,0.,1.));
#131=DIRECTION('refdir',(1.,0.,0.));
#132=DIRECTION('center_axis',(-1.,1.75074527609736E-16,0.));
#133=DIRECTION('ref_axis',(2.01858731750028E-16,1.,0.));
#134=DIRECTION('center_axis',(1.,-1.75074527609736E-16,0.));
#135=DIRECTION('ref_axis',(0.,0.,-1.));
#136=DIRECTION('center_axis',(1.,-1.75074527609736E-16,0.));
#137=DIRECTION('ref_axis',(0.,0.,-1.));
#138=DIRECTION('center_axis',(1.,-1.75074527609736E-16,0.));
#139=DIRECTION('ref_axis',(0.,0.,-1.));
#140=DIRECTION('center_axis',(1.,-1.75074527609736E-16,0.));
#141=DIRECTION('ref_axis',(0.,0.,-1.));
#142=DIRECTION('center_axis',(1.,-1.75074527609736E-16,0.));
#143=DIRECTION('ref_axis',(0.,0.,-1.));
#144=DIRECTION('center_axis',(1.,-1.75074527609736E-16,0.));
#145=DIRECTION('ref_axis',(0.,0.,-1.));
#146=DIRECTION('center_axis',(1.,-1.75074527609736E-16,0.));
#147=DIRECTION('ref_axis',(2.01858731750028E-16,1.,0.));
#148=DIRECTION('center_axis',(1.,-1.75074527609736E-16,0.));
#149=DIRECTION('ref_axis',(0.,0.,-1.));
#150=DIRECTION('center_axis',(1.,-1.75074527609736E-16,0.));
#151=DIRECTION('ref_axis',(0.,0.,-1.));
#152=DIRECTION('center_axis',(1.,-1.75074527609736E-16,0.));
#153=DIRECTION('ref_axis',(0.,0.,-1.));
#154=DIRECTION('center_axis',(1.,-1.75074527609736E-16,0.));
#155=DIRECTION('ref_axis',(0.,0.,-1.));
#156=DIRECTION('center_axis',(0.,0.,1.));
#157=DIRECTION('ref_axis',(1.,0.,0.));
#158=DIRECTION('center_axis',(1.,-1.75074527609736E-16,0.));
#159=DIRECTION('ref_axis',(0.,0.,-1.));
#160=DIRECTION('center_axis',(1.,-1.75074527609736E-16,0.));
#161=DIRECTION('ref_axis',(0.,0.,-1.));
#162=DIRECTION('center_axis',(1.,-1.75074527609736E-16,0.));
#163=DIRECTION('ref_axis',(0.,0.,-1.));
#164=DIRECTION('center_axis',(1.,-1.75074527609736E-16,0.));
#165=DIRECTION('ref_axis',(2.01858731750028E-16,1.,0.));
#166=CARTESIAN_POINT('',(0.,0.,0.));
#167=CARTESIAN_POINT('Origin',(-0.0500000000000012,8.75372638048683E-18,
0.));
#168=CARTESIAN_POINT('',(0.,5.4,0.));
#169=CARTESIAN_POINT('Origin',(-1.11022302462516E-15,0.,0.));
#170=CARTESIAN_POINT('',(-0.1,5.5,0.));
#171=CARTESIAN_POINT('Origin',(-0.100000000000001,1.75074527609737E-17,
0.));
#172=CARTESIAN_POINT('Origin',(0.,4.20000000000002,0.));
#173=CARTESIAN_POINT('',(0.,4.20000000000002,0.));
#174=CARTESIAN_POINT('Origin',(-1.11022302462516E-15,0.,0.));
#175=CARTESIAN_POINT('Origin',(-0.100000000000001,1.75074527609737E-17,
0.));
#176=CARTESIAN_POINT('',(-0.1,4.10000000000001,0.));
#177=CARTESIAN_POINT('Origin',(-0.100000000000001,1.75074527609737E-17,
0.));
#178=CARTESIAN_POINT('Origin',(-5.8,1.01543226013647E-15,0.));
#179=CARTESIAN_POINT('',(-11.5,4.1,0.));
#180=CARTESIAN_POINT('Origin',(-11.5,2.01335706751197E-15,0.));
#181=CARTESIAN_POINT('Origin',(-11.5,2.01335706751197E-15,0.));
#182=CARTESIAN_POINT('',(-13.5,2.1,0.));
#183=CARTESIAN_POINT('Origin',(-13.5,2.36350612273144E-15,0.));
#184=CARTESIAN_POINT('Origin',(-13.5,2.4980018054066E-15,0.));
#185=CARTESIAN_POINT('Origin',(-12.9852941176471,0.,0.));
#186=CARTESIAN_POINT('',(-13.5,8.99999999999999,0.));
#187=CARTESIAN_POINT('Origin',(-13.5,2.36350612273144E-15,0.));
#188=CARTESIAN_POINT('Origin',(-13.5,5.5,0.));
#189=CARTESIAN_POINT('',(-13.5,5.5,0.));
#190=CARTESIAN_POINT('Origin',(-13.5,2.36350612273144E-15,0.));
#191=CARTESIAN_POINT('Origin',(-6.8,1.19050678774621E-15,0.));
#192=UNCERTAINTY_MEASURE_WITH_UNIT(LENGTH_MEASURE(0.01),#196,
'DISTANCE_ACCURACY_VALUE',
'Maximum model space distance between geometric entities at asserted c
onnectivities');
#193=UNCERTAINTY_MEASURE_WITH_UNIT(LENGTH_MEASURE(1.E-6),#196,
'DISTANCE_ACCURACY_VALUE',
'Maximum model space distance between geometric entities at asserted c
onnectivities');
#194=(
GEOMETRIC_REPRESENTATION_CONTEXT(3)
GLOBAL_UNCERTAINTY_ASSIGNED_CONTEXT((#192))
GLOBAL_UNIT_ASSIGNED_CONTEXT((#196,#199,#197))
REPRESENTATION_CONTEXT('','3D')
);
#195=(
GEOMETRIC_REPRESENTATION_CONTEXT(3)
GLOBAL_UNCERTAINTY_ASSIGNED_CONTEXT((#193))
GLOBAL_UNIT_ASSIGNED_CONTEXT((#196,#199,#197))
REPRESENTATION_CONTEXT('','3D')
);
#196=(
LENGTH_UNIT()
NAMED_UNIT(*)
SI_UNIT(.MILLI.,.METRE.)
);
#197=(
NAMED_UNIT(*)
SI_UNIT($,.STERADIAN.)
SOLID_ANGLE_UNIT()
);
#198=DIMENSIONAL_EXPONENTS(0.,0.,0.,0.,0.,0.,0.);
#199=(
CONVERSION_BASED_UNIT('degree',#201)
NAMED_UNIT(#198)
PLANE_ANGLE_UNIT()
);
#200=(
NAMED_UNIT(*)
PLANE_ANGLE_UNIT()
SI_UNIT($,.RADIAN.)
);
#201=PLANE_ANGLE_MEASURE_WITH_UNIT(PLANE_ANGLE_MEASURE(0.01745329252),#200);
#202=SHAPE_DEFINITION_REPRESENTATION(#203,#204);
#203=PRODUCT_DEFINITION_SHAPE('',$,#206);
#204=SHAPE_REPRESENTATION('',(#112),#194);
#205=PRODUCT_DEFINITION_CONTEXT('part definition',#210,'design');
#206=PRODUCT_DEFINITION('73007416DS',
'Blindstopfen-01-BT-0005-73007416DS',#207,#205);
#207=PRODUCT_DEFINITION_FORMATION('',$,#212);
#208=PRODUCT_RELATED_PRODUCT_CATEGORY(
'Blindstopfen-01-BT-0005-73007416DS',
'Blindstopfen-01-BT-0005-73007416DS',(#212));
#209=APPLICATION_PROTOCOL_DEFINITION('international standard',
'automotive_design',2009,#210);
#210=APPLICATION_CONTEXT(
'Core Data for Automotive Mechanical Design Process');
#211=PRODUCT_CONTEXT('part definition',#210,'mechanical');
#212=PRODUCT('73007416DS','Blindstopfen-01-BT-0005-73007416DS',
'Blindstopfen PG 16 (7-12)',(#211));
#213=PRESENTATION_STYLE_ASSIGNMENT((#214));
#214=SURFACE_STYLE_USAGE(.BOTH.,#215);
#215=SURFACE_SIDE_STYLE('',(#216));
#216=SURFACE_STYLE_FILL_AREA(#217);
#217=FILL_AREA_STYLE('',(#218));
#218=FILL_AREA_STYLE_COLOUR('',#219);
#219=COLOUR_RGB('',0.,0.,0.);
ENDSEC;
END-ISO-10303-21;
