ISO-10303-21;
HEADER;
/* Generated by software containing ST-Developer
 * from STEP Tools, Inc. (www.steptools.com) 
 */

FILE_DESCRIPTION(
/* description */ ('Schutzkappe f\X\FCr ADE N\X\B05'),
/* implementation_level */ '2;1');

FILE_NAME(
/* name */ 
'Y:\\Produkte\\Produktdaten_Produktdarstellungen\\Produktdarstellungen
_Bilder-3DModelle-etc\\3D-Modelle\\Kundenversionen\\Eaton\\Capri_SL\\R
ST-SL\\Shrouds\\00506050-RST.stp',
/* time_stamp */ '2020-10-28T12:36:14+01:00',
/* author */ ('sl'),
/* organization */ (''),
/* preprocessor_version */ 'ST-DEVELOPER v16.5',
/* originating_system */ 'Autodesk Inventor 2017',
/* authorisation */ '');

FILE_SCHEMA (('AUTOMOTIVE_DESIGN { 1 0 10303 214 3 1 1 }'));
ENDSEC;

DATA;
#10=MECHANICAL_DESIGN_GEOMETRIC_PRESENTATION_REPRESENTATION('',(#13),#315);
#11=SHAPE_REPRESENTATION_RELATIONSHIP('SRR','None',#324,#12);
#12=ADVANCED_BREP_SHAPE_REPRESENTATION('',(#14),#314);
#13=STYLED_ITEM('',(#333),#14);
#14=MANIFOLD_SOLID_BREP('Volumenk\X\F6rper2',#171);
#15=PLANE('',#191);
#16=PLANE('',#205);
#17=PLANE('',#207);
#18=CYLINDRICAL_SURFACE('',#184,11.3000000000595);
#19=CYLINDRICAL_SURFACE('',#197,10.);
#20=CONICAL_SURFACE('',#182,9.18639794850924,80.);
#21=CONICAL_SURFACE('',#189,3.87499999999999,29.9953793296142);
#22=CONICAL_SURFACE('',#195,8.125,80.);
#23=CONICAL_SURFACE('',#203,4.66171057084534,29.9953793296142);
#24=FACE_BOUND('',#53,.T.);
#25=FACE_BOUND('',#55,.T.);
#26=FACE_BOUND('',#57,.T.);
#27=FACE_BOUND('',#59,.T.);
#28=FACE_BOUND('',#61,.T.);
#29=FACE_BOUND('',#64,.T.);
#30=FACE_BOUND('',#66,.T.);
#31=FACE_BOUND('',#68,.T.);
#32=FACE_BOUND('',#70,.T.);
#33=FACE_BOUND('',#72,.T.);
#34=FACE_BOUND('',#74,.T.);
#35=FACE_BOUND('',#77,.T.);
#36=FACE_BOUND('',#79,.T.);
#37=FACE_OUTER_BOUND('',#52,.T.);
#38=FACE_OUTER_BOUND('',#54,.T.);
#39=FACE_OUTER_BOUND('',#56,.T.);
#40=FACE_OUTER_BOUND('',#58,.T.);
#41=FACE_OUTER_BOUND('',#60,.T.);
#42=FACE_OUTER_BOUND('',#62,.T.);
#43=FACE_OUTER_BOUND('',#63,.T.);
#44=FACE_OUTER_BOUND('',#65,.T.);
#45=FACE_OUTER_BOUND('',#67,.T.);
#46=FACE_OUTER_BOUND('',#69,.T.);
#47=FACE_OUTER_BOUND('',#71,.T.);
#48=FACE_OUTER_BOUND('',#73,.T.);
#49=FACE_OUTER_BOUND('',#75,.T.);
#50=FACE_OUTER_BOUND('',#76,.T.);
#51=FACE_OUTER_BOUND('',#78,.T.);
#52=EDGE_LOOP('',(#122));
#53=EDGE_LOOP('',(#123));
#54=EDGE_LOOP('',(#124));
#55=EDGE_LOOP('',(#125));
#56=EDGE_LOOP('',(#126));
#57=EDGE_LOOP('',(#127));
#58=EDGE_LOOP('',(#128));
#59=EDGE_LOOP('',(#129));
#60=EDGE_LOOP('',(#130));
#61=EDGE_LOOP('',(#131));
#62=EDGE_LOOP('',(#132));
#63=EDGE_LOOP('',(#133));
#64=EDGE_LOOP('',(#134));
#65=EDGE_LOOP('',(#135));
#66=EDGE_LOOP('',(#136));
#67=EDGE_LOOP('',(#137));
#68=EDGE_LOOP('',(#138));
#69=EDGE_LOOP('',(#139));
#70=EDGE_LOOP('',(#140));
#71=EDGE_LOOP('',(#141));
#72=EDGE_LOOP('',(#142));
#73=EDGE_LOOP('',(#143));
#74=EDGE_LOOP('',(#144));
#75=EDGE_LOOP('',(#145));
#76=EDGE_LOOP('',(#146));
#77=EDGE_LOOP('',(#147));
#78=EDGE_LOOP('',(#148));
#79=EDGE_LOOP('',(#149));
#80=CIRCLE('',#180,11.3000000000595);
#81=CIRCLE('',#181,10.886824088893);
#82=CIRCLE('',#183,7.30243176847986);
#83=CIRCLE('',#185,11.3000000000595);
#84=CIRCLE('',#187,1.2112979828087);
#85=CIRCLE('',#188,1.64433084477076);
#86=CIRCLE('',#190,6.13342709839228);
#87=CIRCLE('',#193,9.58682408883347);
#88=CIRCLE('',#194,10.);
#89=CIRCLE('',#196,6.47963587152088);
#90=CIRCLE('',#198,10.);
#91=CIRCLE('',#201,2.39495608950248);
#92=CIRCLE('',#202,1.96192322754042);
#93=CIRCLE('',#204,6.95622299535126);
#94=VERTEX_POINT('',#270);
#95=VERTEX_POINT('',#272);
#96=VERTEX_POINT('',#275);
#97=VERTEX_POINT('',#278);
#98=VERTEX_POINT('',#281);
#99=VERTEX_POINT('',#283);
#100=VERTEX_POINT('',#286);
#101=VERTEX_POINT('',#290);
#102=VERTEX_POINT('',#292);
#103=VERTEX_POINT('',#295);
#104=VERTEX_POINT('',#298);
#105=VERTEX_POINT('',#302);
#106=VERTEX_POINT('',#304);
#107=VERTEX_POINT('',#307);
#108=EDGE_CURVE('',#94,#94,#80,.T.);
#109=EDGE_CURVE('',#95,#95,#81,.T.);
#110=EDGE_CURVE('',#96,#96,#82,.T.);
#111=EDGE_CURVE('',#97,#97,#83,.T.);
#112=EDGE_CURVE('',#98,#98,#84,.T.);
#113=EDGE_CURVE('',#99,#99,#85,.T.);
#114=EDGE_CURVE('',#100,#100,#86,.T.);
#115=EDGE_CURVE('',#101,#101,#87,.T.);
#116=EDGE_CURVE('',#102,#102,#88,.T.);
#117=EDGE_CURVE('',#103,#103,#89,.T.);
#118=EDGE_CURVE('',#104,#104,#90,.T.);
#119=EDGE_CURVE('',#105,#105,#91,.T.);
#120=EDGE_CURVE('',#106,#106,#92,.T.);
#121=EDGE_CURVE('',#107,#107,#93,.T.);
#122=ORIENTED_EDGE('',*,*,#108,.T.);
#123=ORIENTED_EDGE('',*,*,#109,.T.);
#124=ORIENTED_EDGE('',*,*,#110,.F.);
#125=ORIENTED_EDGE('',*,*,#109,.F.);
#126=ORIENTED_EDGE('',*,*,#111,.T.);
#127=ORIENTED_EDGE('',*,*,#108,.F.);
#128=ORIENTED_EDGE('',*,*,#112,.T.);
#129=ORIENTED_EDGE('',*,*,#113,.T.);
#130=ORIENTED_EDGE('',*,*,#114,.F.);
#131=ORIENTED_EDGE('',*,*,#113,.F.);
#132=ORIENTED_EDGE('',*,*,#112,.F.);
#133=ORIENTED_EDGE('',*,*,#115,.T.);
#134=ORIENTED_EDGE('',*,*,#116,.T.);
#135=ORIENTED_EDGE('',*,*,#117,.F.);
#136=ORIENTED_EDGE('',*,*,#115,.F.);
#137=ORIENTED_EDGE('',*,*,#118,.F.);
#138=ORIENTED_EDGE('',*,*,#116,.F.);
#139=ORIENTED_EDGE('',*,*,#114,.T.);
#140=ORIENTED_EDGE('',*,*,#117,.T.);
#141=ORIENTED_EDGE('',*,*,#119,.T.);
#142=ORIENTED_EDGE('',*,*,#120,.T.);
#143=ORIENTED_EDGE('',*,*,#121,.F.);
#144=ORIENTED_EDGE('',*,*,#119,.F.);
#145=ORIENTED_EDGE('',*,*,#120,.F.);
#146=ORIENTED_EDGE('',*,*,#110,.T.);
#147=ORIENTED_EDGE('',*,*,#121,.T.);
#148=ORIENTED_EDGE('',*,*,#111,.F.);
#149=ORIENTED_EDGE('',*,*,#118,.T.);
#150=TOROIDAL_SURFACE('',#179,10.8000000000595,0.5);
#151=TOROIDAL_SURFACE('',#186,1.2112979828087,0.5);
#152=TOROIDAL_SURFACE('',#192,9.5,0.5);
#153=TOROIDAL_SURFACE('',#199,6.56645996035435,0.5);
#154=TOROIDAL_SURFACE('',#200,1.96192322754042,0.5);
#155=TOROIDAL_SURFACE('',#206,7.38925585731332,0.5);
#156=ADVANCED_FACE('',(#37,#24),#150,.T.);
#157=ADVANCED_FACE('',(#38,#25),#20,.T.);
#158=ADVANCED_FACE('',(#39,#26),#18,.T.);
#159=ADVANCED_FACE('',(#40,#27),#151,.F.);
#160=ADVANCED_FACE('',(#41,#28),#21,.F.);
#161=ADVANCED_FACE('',(#42),#15,.T.);
#162=ADVANCED_FACE('',(#43,#29),#152,.F.);
#163=ADVANCED_FACE('',(#44,#30),#22,.F.);
#164=ADVANCED_FACE('',(#45,#31),#19,.F.);
#165=ADVANCED_FACE('',(#46,#32),#153,.T.);
#166=ADVANCED_FACE('',(#47,#33),#154,.T.);
#167=ADVANCED_FACE('',(#48,#34),#23,.T.);
#168=ADVANCED_FACE('',(#49),#16,.T.);
#169=ADVANCED_FACE('',(#50,#35),#155,.F.);
#170=ADVANCED_FACE('',(#51,#36),#17,.T.);
#171=CLOSED_SHELL('',(#156,#157,#158,#159,#160,#161,#162,#163,#164,#165,
#166,#167,#168,#169,#170));
#172=DATE_TIME_ROLE('creation_date');
#173=APPLIED_DATE_AND_TIME_ASSIGNMENT(#174,#172,(#326));
#174=DATE_AND_TIME(#175,#176);
#175=CALENDAR_DATE(2020,27,10);
#176=LOCAL_TIME(23,0,0.,#177);
#177=COORDINATED_UNIVERSAL_TIME_OFFSET(0,0,.BEHIND.);
#178=AXIS2_PLACEMENT_3D('placement',#268,#208,#209);
#179=AXIS2_PLACEMENT_3D('',#269,#210,#211);
#180=AXIS2_PLACEMENT_3D('',#271,#212,#213);
#181=AXIS2_PLACEMENT_3D('',#273,#214,#215);
#182=AXIS2_PLACEMENT_3D('',#274,#216,#217);
#183=AXIS2_PLACEMENT_3D('',#276,#218,#219);
#184=AXIS2_PLACEMENT_3D('',#277,#220,#221);
#185=AXIS2_PLACEMENT_3D('',#279,#222,#223);
#186=AXIS2_PLACEMENT_3D('',#280,#224,#225);
#187=AXIS2_PLACEMENT_3D('',#282,#226,#227);
#188=AXIS2_PLACEMENT_3D('',#284,#228,#229);
#189=AXIS2_PLACEMENT_3D('',#285,#230,#231);
#190=AXIS2_PLACEMENT_3D('',#287,#232,#233);
#191=AXIS2_PLACEMENT_3D('',#288,#234,#235);
#192=AXIS2_PLACEMENT_3D('',#289,#236,#237);
#193=AXIS2_PLACEMENT_3D('',#291,#238,#239);
#194=AXIS2_PLACEMENT_3D('',#293,#240,#241);
#195=AXIS2_PLACEMENT_3D('',#294,#242,#243);
#196=AXIS2_PLACEMENT_3D('',#296,#244,#245);
#197=AXIS2_PLACEMENT_3D('',#297,#246,#247);
#198=AXIS2_PLACEMENT_3D('',#299,#248,#249);
#199=AXIS2_PLACEMENT_3D('',#300,#250,#251);
#200=AXIS2_PLACEMENT_3D('',#301,#252,#253);
#201=AXIS2_PLACEMENT_3D('',#303,#254,#255);
#202=AXIS2_PLACEMENT_3D('',#305,#256,#257);
#203=AXIS2_PLACEMENT_3D('',#306,#258,#259);
#204=AXIS2_PLACEMENT_3D('',#308,#260,#261);
#205=AXIS2_PLACEMENT_3D('',#309,#262,#263);
#206=AXIS2_PLACEMENT_3D('',#310,#264,#265);
#207=AXIS2_PLACEMENT_3D('',#311,#266,#267);
#208=DIRECTION('axis',(0.,0.,1.));
#209=DIRECTION('refdir',(1.,0.,0.));
#210=DIRECTION('center_axis',(-1.,-1.87336298065126E-16,0.));
#211=DIRECTION('ref_axis',(0.,0.,1.));
#212=DIRECTION('center_axis',(-1.,-1.87336298065126E-16,0.));
#213=DIRECTION('ref_axis',(1.90359036300877E-16,-1.,-1.83697019872103E-16));
#214=DIRECTION('center_axis',(1.,0.,0.));
#215=DIRECTION('ref_axis',(0.,-1.,-3.06161699786838E-17));
#216=DIRECTION('center_axis',(1.,1.87336298065126E-16,0.));
#217=DIRECTION('ref_axis',(-1.87336298065126E-16,1.,0.));
#218=DIRECTION('center_axis',(-1.,0.,0.));
#219=DIRECTION('ref_axis',(0.,-1.,-3.06161699786838E-17));
#220=DIRECTION('center_axis',(-1.,-1.87336298065126E-16,0.));
#221=DIRECTION('ref_axis',(-1.87336298065126E-16,1.,0.));
#222=DIRECTION('center_axis',(-1.,-1.87336298065126E-16,0.));
#223=DIRECTION('ref_axis',(0.,0.,1.));
#224=DIRECTION('center_axis',(-1.,-1.87336298065126E-16,0.));
#225=DIRECTION('ref_axis',(0.,0.,1.));
#226=DIRECTION('center_axis',(-1.,-1.87336298065126E-16,0.));
#227=DIRECTION('ref_axis',(1.87336298065126E-16,-1.,-1.83697019872103E-16));
#228=DIRECTION('center_axis',(1.,0.,0.));
#229=DIRECTION('ref_axis',(0.,-1.,-3.06161699786837E-17));
#230=DIRECTION('center_axis',(1.,1.87336298065126E-16,0.));
#231=DIRECTION('ref_axis',(-1.87336298065126E-16,1.,0.));
#232=DIRECTION('center_axis',(-1.,0.,0.));
#233=DIRECTION('ref_axis',(0.,-1.,-3.06161699786838E-17));
#234=DIRECTION('center_axis',(1.,1.87336298065126E-16,0.));
#235=DIRECTION('ref_axis',(0.,0.,-1.));
#236=DIRECTION('center_axis',(-1.,-1.87336298065126E-16,0.));
#237=DIRECTION('ref_axis',(0.,0.,1.));
#238=DIRECTION('center_axis',(-1.,0.,0.));
#239=DIRECTION('ref_axis',(0.,-1.,-3.06161699786838E-17));
#240=DIRECTION('center_axis',(1.,1.87336298065126E-16,0.));
#241=DIRECTION('ref_axis',(1.87350135405495E-16,-1.,-1.83697019872103E-16));
#242=DIRECTION('center_axis',(1.,1.87336298065126E-16,0.));
#243=DIRECTION('ref_axis',(-1.87336298065126E-16,1.,0.));
#244=DIRECTION('center_axis',(1.,0.,0.));
#245=DIRECTION('ref_axis',(0.,-1.,-3.06161699786838E-17));
#246=DIRECTION('center_axis',(-1.,-1.87336298065126E-16,0.));
#247=DIRECTION('ref_axis',(-1.87336298065126E-16,1.,0.));
#248=DIRECTION('center_axis',(-1.,-1.87336298065126E-16,0.));
#249=DIRECTION('ref_axis',(0.,0.,1.));
#250=DIRECTION('center_axis',(-1.,-1.87336298065126E-16,0.));
#251=DIRECTION('ref_axis',(0.,0.,1.));
#252=DIRECTION('center_axis',(-1.,-1.87336298065126E-16,0.));
#253=DIRECTION('ref_axis',(0.,0.,1.));
#254=DIRECTION('center_axis',(-1.,0.,0.));
#255=DIRECTION('ref_axis',(0.,-1.,-3.06161699786838E-17));
#256=DIRECTION('center_axis',(1.,1.87336298065126E-16,0.));
#257=DIRECTION('ref_axis',(1.87336298065126E-16,-1.,-1.83697019872103E-16));
#258=DIRECTION('center_axis',(1.,1.87336298065126E-16,0.));
#259=DIRECTION('ref_axis',(-1.87336298065126E-16,1.,0.));
#260=DIRECTION('center_axis',(1.,0.,0.));
#261=DIRECTION('ref_axis',(0.,-1.,-3.06161699786838E-17));
#262=DIRECTION('center_axis',(-1.,-1.87336298065126E-16,0.));
#263=DIRECTION('ref_axis',(0.,0.,1.));
#264=DIRECTION('center_axis',(-1.,-1.87336298065126E-16,0.));
#265=DIRECTION('ref_axis',(0.,0.,1.));
#266=DIRECTION('center_axis',(1.,1.87336298065126E-16,0.));
#267=DIRECTION('ref_axis',(0.,0.,-1.));
#268=CARTESIAN_POINT('',(0.,0.,0.));
#269=CARTESIAN_POINT('Origin',(-55.6712797049918,-1.04292514484813E-14,
0.));
#270=CARTESIAN_POINT('',(-55.6712797049918,11.3000000000595,6.91925441521898E-16));
#271=CARTESIAN_POINT('Origin',(-55.6712797049918,-1.04292514484813E-14,
0.));
#272=CARTESIAN_POINT('',(-56.1636835814979,10.886824088893,3.33312856833577E-15));
#273=CARTESIAN_POINT('Origin',(-56.1636835814979,-1.11022302462516E-14,
1.66656428416789E-15));
#274=CARTESIAN_POINT('Origin',(-56.4635145887495,-1.05776657988026E-14,
0.));
#275=CARTESIAN_POINT('',(-56.7957086570309,7.30243176847984,4.4714498456304E-16));
#276=CARTESIAN_POINT('Origin',(-56.7957086570309,-1.11022302462516E-14,
1.1178624614076E-15));
#277=CARTESIAN_POINT('Origin',(-28.0454147602902,-5.25392417889381E-15,
0.));
#278=CARTESIAN_POINT('',(-4.86797102674926E-16,11.3000000000595,0.));
#279=CARTESIAN_POINT('Origin',(1.63010306547215E-15,3.05377473750166E-31,
0.));
#280=CARTESIAN_POINT('Origin',(-63.39,-1.18752479343483E-14,0.));
#281=CARTESIAN_POINT('',(-63.89,1.21129798280868,7.41706098730157E-17));
#282=CARTESIAN_POINT('Origin',(-63.89,-1.19689160833809E-14,0.));
#283=CARTESIAN_POINT('',(-63.6399650784829,1.64433084477074,5.03431126446942E-16));
#284=CARTESIAN_POINT('Origin',(-63.6399650784829,-1.20736753927986E-14,
2.51715563223471E-16));
#285=CARTESIAN_POINT('Origin',(-59.7756130888284,-1.11981420706344E-14,
0.));
#286=CARTESIAN_POINT('',(-55.8631739757924,6.13342709839227,3.75564093192488E-16));
#287=CARTESIAN_POINT('Origin',(-55.8631739757924,-9.99200722162641E-15,
9.38910232981218E-16));
#288=CARTESIAN_POINT('Origin',(-63.89,1.49999999999998,0.));
#289=CARTESIAN_POINT('Origin',(-54.5804501844114,-1.02248994842757E-14,
0.));
#290=CARTESIAN_POINT('',(-55.0728540609175,9.58682408883346,5.87023671718932E-16));
#291=CARTESIAN_POINT('Origin',(-55.0728540609175,-9.99200722162641E-15,
1.46755917929733E-15));
#292=CARTESIAN_POINT('',(-54.5804501844114,9.99999999999999,3.06161699786838E-15));
#293=CARTESIAN_POINT('Origin',(-54.5804501844114,-1.02248994842757E-14,
0.));
#294=CARTESIAN_POINT('Origin',(-55.3306130888284,-1.03654322257349E-14,
0.));
#295=CARTESIAN_POINT('',(-55.6207351777691,6.47963587152087,1.9838163324246E-15));
#296=CARTESIAN_POINT('Origin',(-55.6207351777691,-9.99200722162641E-15,
9.91908166212302E-16));
#297=CARTESIAN_POINT('Origin',(-27.5,-5.15174819679097E-15,0.));
#298=CARTESIAN_POINT('',(0.,10.,0.));
#299=CARTESIAN_POINT('Origin',(1.87336298065126E-15,3.50948885727458E-31,
0.));
#300=CARTESIAN_POINT('Origin',(-56.1131390542752,-1.05120277432416E-14,
0.));
#301=CARTESIAN_POINT('Origin',(-64.6900000000595,-1.21187851218442E-14,
0.));
#302=CARTESIAN_POINT('',(-64.9399650785424,2.39495608950246,1.46648765455384E-16));
#303=CARTESIAN_POINT('Origin',(-64.9399650785424,-1.26287869051112E-14,
3.66621913638459E-16));
#304=CARTESIAN_POINT('',(-65.1900000000595,1.9619232275404,6.00665750195053E-16));
#305=CARTESIAN_POINT('Origin',(-65.1900000000595,-1.22124532708767E-14,
0.));
#306=CARTESIAN_POINT('Origin',(-61.013099828489,-1.14299682553471E-14,0.));
#307=CARTESIAN_POINT('',(-57.0381474550542,6.95622299535125,2.12972905635303E-15));
#308=CARTESIAN_POINT('Origin',(-57.0381474550542,-1.11022302462516E-14,
1.06486452817652E-15));
#309=CARTESIAN_POINT('Origin',(-65.1900000000595,-1.22124532708767E-14,
0.));
#310=CARTESIAN_POINT('Origin',(-57.288112533537,-1.07321429251712E-14,0.));
#311=CARTESIAN_POINT('Origin',(-4.86797102674926E-16,11.3000000000595,0.));
#312=UNCERTAINTY_MEASURE_WITH_UNIT(LENGTH_MEASURE(0.01),#316,
'DISTANCE_ACCURACY_VALUE',
'Maximum model space distance between geometric entities at asserted c
onnectivities');
#313=UNCERTAINTY_MEASURE_WITH_UNIT(LENGTH_MEASURE(1.E-6),#316,
'DISTANCE_ACCURACY_VALUE',
'Maximum model space distance between geometric entities at asserted c
onnectivities');
#314=(
GEOMETRIC_REPRESENTATION_CONTEXT(3)
GLOBAL_UNCERTAINTY_ASSIGNED_CONTEXT((#312))
GLOBAL_UNIT_ASSIGNED_CONTEXT((#316,#319,#317))
REPRESENTATION_CONTEXT('','3D')
);
#315=(
GEOMETRIC_REPRESENTATION_CONTEXT(3)
GLOBAL_UNCERTAINTY_ASSIGNED_CONTEXT((#313))
GLOBAL_UNIT_ASSIGNED_CONTEXT((#316,#319,#317))
REPRESENTATION_CONTEXT('','3D')
);
#316=(
LENGTH_UNIT()
NAMED_UNIT(*)
SI_UNIT(.MILLI.,.METRE.)
);
#317=(
NAMED_UNIT(*)
SI_UNIT($,.STERADIAN.)
SOLID_ANGLE_UNIT()
);
#318=DIMENSIONAL_EXPONENTS(0.,0.,0.,0.,0.,0.,0.);
#319=(
CONVERSION_BASED_UNIT('degree',#321)
NAMED_UNIT(#318)
PLANE_ANGLE_UNIT()
);
#320=(
NAMED_UNIT(*)
PLANE_ANGLE_UNIT()
SI_UNIT($,.RADIAN.)
);
#321=PLANE_ANGLE_MEASURE_WITH_UNIT(PLANE_ANGLE_MEASURE(0.01745329252),#320);
#322=SHAPE_DEFINITION_REPRESENTATION(#323,#324);
#323=PRODUCT_DEFINITION_SHAPE('',$,#326);
#324=SHAPE_REPRESENTATION('',(#178),#314);
#325=PRODUCT_DEFINITION_CONTEXT('part definition',#330,'design');
#326=PRODUCT_DEFINITION('00506050','Schutzkappe-01-BT-0001-00506050',#327,
#325);
#327=PRODUCT_DEFINITION_FORMATION('',$,#332);
#328=PRODUCT_RELATED_PRODUCT_CATEGORY('Schutzkappe-01-BT-0001-00506050',
'Schutzkappe-01-BT-0001-00506050',(#332));
#329=APPLICATION_PROTOCOL_DEFINITION('international standard',
'automotive_design',2009,#330);
#330=APPLICATION_CONTEXT(
'Core Data for Automotive Mechanical Design Process');
#331=PRODUCT_CONTEXT('part definition',#330,'mechanical');
#332=PRODUCT('00506050','Schutzkappe-01-BT-0001-00506050',
'Schutzkappe f\X\FCr ADE N\X\B05',(#331));
#333=PRESENTATION_STYLE_ASSIGNMENT((#334));
#334=SURFACE_STYLE_USAGE(.BOTH.,#335);
#335=SURFACE_SIDE_STYLE('',(#336));
#336=SURFACE_STYLE_FILL_AREA(#337);
#337=FILL_AREA_STYLE('',(#338));
#338=FILL_AREA_STYLE_COLOUR('',#339);
#339=COLOUR_RGB('',0.250980392156863,0.250980392156863,0.250980392156863);
ENDSEC;
END-ISO-10303-21;
