ISO-10303-21;
HEADER;
/* Generated by software containing ST-Developer
 * from STEP Tools, Inc. (www.steptools.com) 
 */

FILE_DESCRIPTION(
/* description */ ('Schutzkappe f\X\FCr ADE 506110'),
/* implementation_level */ '2;1');

FILE_NAME(
/* name */ 
'Y:\\Produkte\\Zeichnungen_Bilder_Videos_Katalogdatenbl\X\E4tter\\Prod
uktzeichnungen_3D\\Kundenversionen\\Eaton\\Capri_SL\\RST-SL\\Shrouds\\
00506110-RST.stp',
/* time_stamp */ '2016-09-13T13:59:40+02:00',
/* author */ ('SL'),
/* organization */ (''),
/* preprocessor_version */ 'ST-DEVELOPER v15.2',
/* originating_system */ 'Autodesk Inventor 2014',
/* authorisation */ '');

FILE_SCHEMA (('AUTOMOTIVE_DESIGN { 1 0 10303 214 3 1 1 }'));
ENDSEC;

DATA;
#10=MECHANICAL_DESIGN_GEOMETRIC_PRESENTATION_REPRESENTATION('',(#13),#363);
#11=SHAPE_REPRESENTATION_RELATIONSHIP('SRR','None',#372,#12);
#12=ADVANCED_BREP_SHAPE_REPRESENTATION($,(#202),#362);
#13=STYLED_ITEM('',(#381),#202);
#14=PLANE('',#216);
#15=PLANE('',#235);
#16=CYLINDRICAL_SURFACE('',#214,33.4999999999516);
#17=CYLINDRICAL_SURFACE('',#221,13.3749999998845);
#18=CYLINDRICAL_SURFACE('',#232,31.6999999999509);
#19=CONICAL_SURFACE('',#207,27.8765084872031,79.6697503385724);
#20=CONICAL_SURFACE('',#209,20.2379744411364,28.2098289860589);
#21=CONICAL_SURFACE('',#226,28.6071487883075,79.6697503385726);
#22=CONICAL_SURFACE('',#230,22.0642768172804,28.2098289860588);
#23=FACE_BOUND('',#58,.T.);
#24=FACE_BOUND('',#60,.T.);
#25=FACE_BOUND('',#62,.T.);
#26=FACE_BOUND('',#64,.T.);
#27=FACE_BOUND('',#66,.T.);
#28=FACE_BOUND('',#67,.T.);
#29=FACE_BOUND('',#68,.T.);
#30=FACE_BOUND('',#70,.T.);
#31=FACE_BOUND('',#72,.T.);
#32=FACE_BOUND('',#74,.T.);
#33=FACE_BOUND('',#76,.T.);
#34=FACE_BOUND('',#78,.T.);
#35=FACE_BOUND('',#80,.T.);
#36=FACE_BOUND('',#82,.T.);
#37=FACE_BOUND('',#84,.T.);
#38=FACE_BOUND('',#85,.T.);
#39=FACE_BOUND('',#86,.T.);
#40=FACE_BOUND('',#88,.T.);
#41=FACE_BOUND('',#90,.T.);
#42=FACE_OUTER_BOUND('',#57,.T.);
#43=FACE_OUTER_BOUND('',#59,.T.);
#44=FACE_OUTER_BOUND('',#61,.T.);
#45=FACE_OUTER_BOUND('',#63,.T.);
#46=FACE_OUTER_BOUND('',#65,.T.);
#47=FACE_OUTER_BOUND('',#69,.T.);
#48=FACE_OUTER_BOUND('',#71,.T.);
#49=FACE_OUTER_BOUND('',#73,.T.);
#50=FACE_OUTER_BOUND('',#75,.T.);
#51=FACE_OUTER_BOUND('',#77,.T.);
#52=FACE_OUTER_BOUND('',#79,.T.);
#53=FACE_OUTER_BOUND('',#81,.T.);
#54=FACE_OUTER_BOUND('',#83,.T.);
#55=FACE_OUTER_BOUND('',#87,.T.);
#56=FACE_OUTER_BOUND('',#89,.T.);
#57=EDGE_LOOP('',(#142));
#58=EDGE_LOOP('',(#143));
#59=EDGE_LOOP('',(#144));
#60=EDGE_LOOP('',(#145));
#61=EDGE_LOOP('',(#146));
#62=EDGE_LOOP('',(#147));
#63=EDGE_LOOP('',(#148));
#64=EDGE_LOOP('',(#149));
#65=EDGE_LOOP('',(#150));
#66=EDGE_LOOP('',(#151));
#67=EDGE_LOOP('',(#152));
#68=EDGE_LOOP('',(#153));
#69=EDGE_LOOP('',(#154));
#70=EDGE_LOOP('',(#155));
#71=EDGE_LOOP('',(#156));
#72=EDGE_LOOP('',(#157));
#73=EDGE_LOOP('',(#158));
#74=EDGE_LOOP('',(#159));
#75=EDGE_LOOP('',(#160));
#76=EDGE_LOOP('',(#161));
#77=EDGE_LOOP('',(#162));
#78=EDGE_LOOP('',(#163));
#79=EDGE_LOOP('',(#164));
#80=EDGE_LOOP('',(#165));
#81=EDGE_LOOP('',(#166));
#82=EDGE_LOOP('',(#167));
#83=EDGE_LOOP('',(#168));
#84=EDGE_LOOP('',(#169));
#85=EDGE_LOOP('',(#170));
#86=EDGE_LOOP('',(#171));
#87=EDGE_LOOP('',(#172));
#88=EDGE_LOOP('',(#173));
#89=EDGE_LOOP('',(#174));
#90=EDGE_LOOP('',(#175));
#91=CIRCLE('',#205,25.0271171174012);
#92=CIRCLE('',#206,24.3252163818903);
#93=CIRCLE('',#208,31.1999999999013);
#94=CIRCLE('',#210,15.922931907768);
#95=CIRCLE('',#212,33.4999999999516);
#96=CIRCLE('',#213,32.9999999999516);
#97=CIRCLE('',#215,33.4999999999033);
#98=CIRCLE('',#217,31.7);
#99=CIRCLE('',#219,13.3749999998845);
#100=CIRCLE('',#220,14.0081441884453);
#101=CIRCLE('',#222,13.3749999998845);
#102=CIRCLE('',#224,30.9727319576912);
#103=CIRCLE('',#225,32.0234811349888);
#104=CIRCLE('',#227,30.4552990056781);
#105=CIRCLE('',#229,23.4362916505697);
#106=CIRCLE('',#231,18.4142560578455);
#107=CIRCLE('',#233,31.6999999999018);
#108=VERTEX_POINT('',#310);
#109=VERTEX_POINT('',#312);
#110=VERTEX_POINT('',#315);
#111=VERTEX_POINT('',#318);
#112=VERTEX_POINT('',#321);
#113=VERTEX_POINT('',#323);
#114=VERTEX_POINT('',#326);
#115=VERTEX_POINT('',#329);
#116=VERTEX_POINT('',#332);
#117=VERTEX_POINT('',#334);
#118=VERTEX_POINT('',#337);
#119=VERTEX_POINT('',#340);
#120=VERTEX_POINT('',#342);
#121=VERTEX_POINT('',#345);
#122=VERTEX_POINT('',#348);
#123=VERTEX_POINT('',#351);
#124=VERTEX_POINT('',#354);
#125=EDGE_CURVE('',#108,#108,#91,.T.);
#126=EDGE_CURVE('',#109,#109,#92,.T.);
#127=EDGE_CURVE('',#110,#110,#93,.T.);
#128=EDGE_CURVE('',#111,#111,#94,.T.);
#129=EDGE_CURVE('',#112,#112,#95,.T.);
#130=EDGE_CURVE('',#113,#113,#96,.T.);
#131=EDGE_CURVE('',#114,#114,#97,.T.);
#132=EDGE_CURVE('',#115,#115,#98,.T.);
#133=EDGE_CURVE('',#116,#116,#99,.T.);
#134=EDGE_CURVE('',#117,#117,#100,.T.);
#135=EDGE_CURVE('',#118,#118,#101,.T.);
#136=EDGE_CURVE('',#119,#119,#102,.T.);
#137=EDGE_CURVE('',#120,#120,#103,.T.);
#138=EDGE_CURVE('',#121,#121,#104,.T.);
#139=EDGE_CURVE('',#122,#122,#105,.T.);
#140=EDGE_CURVE('',#123,#123,#106,.T.);
#141=EDGE_CURVE('',#124,#124,#107,.T.);
#142=ORIENTED_EDGE('',*,*,#125,.T.);
#143=ORIENTED_EDGE('',*,*,#126,.T.);
#144=ORIENTED_EDGE('',*,*,#127,.T.);
#145=ORIENTED_EDGE('',*,*,#125,.F.);
#146=ORIENTED_EDGE('',*,*,#128,.F.);
#147=ORIENTED_EDGE('',*,*,#126,.F.);
#148=ORIENTED_EDGE('',*,*,#129,.T.);
#149=ORIENTED_EDGE('',*,*,#130,.T.);
#150=ORIENTED_EDGE('',*,*,#131,.T.);
#151=ORIENTED_EDGE('',*,*,#129,.F.);
#152=ORIENTED_EDGE('',*,*,#132,.F.);
#153=ORIENTED_EDGE('',*,*,#130,.F.);
#154=ORIENTED_EDGE('',*,*,#133,.T.);
#155=ORIENTED_EDGE('',*,*,#134,.F.);
#156=ORIENTED_EDGE('',*,*,#135,.T.);
#157=ORIENTED_EDGE('',*,*,#133,.F.);
#158=ORIENTED_EDGE('',*,*,#136,.T.);
#159=ORIENTED_EDGE('',*,*,#137,.T.);
#160=ORIENTED_EDGE('',*,*,#138,.F.);
#161=ORIENTED_EDGE('',*,*,#136,.F.);
#162=ORIENTED_EDGE('',*,*,#139,.T.);
#163=ORIENTED_EDGE('',*,*,#138,.T.);
#164=ORIENTED_EDGE('',*,*,#140,.T.);
#165=ORIENTED_EDGE('',*,*,#139,.F.);
#166=ORIENTED_EDGE('',*,*,#141,.F.);
#167=ORIENTED_EDGE('',*,*,#132,.T.);
#168=ORIENTED_EDGE('',*,*,#127,.F.);
#169=ORIENTED_EDGE('',*,*,#141,.T.);
#170=ORIENTED_EDGE('',*,*,#135,.F.);
#171=ORIENTED_EDGE('',*,*,#128,.T.);
#172=ORIENTED_EDGE('',*,*,#140,.F.);
#173=ORIENTED_EDGE('',*,*,#134,.T.);
#174=ORIENTED_EDGE('',*,*,#137,.F.);
#175=ORIENTED_EDGE('',*,*,#131,.F.);
#176=TOROIDAL_SURFACE('',#204,25.2064387557695,1.);
#177=TOROIDAL_SURFACE('',#211,32.9999999999516,0.5);
#178=TOROIDAL_SURFACE('',#218,15.3749999998844,2.);
#179=TOROIDAL_SURFACE('',#223,30.6140886809546,2.);
#180=TOROIDAL_SURFACE('',#228,32.2485153893612,10.);
#181=TOROIDAL_SURFACE('',#234,31.1999999999017,0.500000000000012);
#182=TOROIDAL_SURFACE('',#236,14.0081441884497,5.);
#183=TOROIDAL_SURFACE('',#237,28.4999999999033,5.);
#184=ADVANCED_FACE('',(#42,#23),#176,.T.);
#185=ADVANCED_FACE('',(#43,#24),#19,.F.);
#186=ADVANCED_FACE('',(#44,#25),#20,.F.);
#187=ADVANCED_FACE('',(#45,#26),#177,.T.);
#188=ADVANCED_FACE('',(#46,#27),#16,.T.);
#189=ADVANCED_FACE('',(#28,#29),#14,.T.);
#190=ADVANCED_FACE('',(#47,#30),#178,.T.);
#191=ADVANCED_FACE('',(#48,#31),#17,.F.);
#192=ADVANCED_FACE('',(#49,#32),#179,.T.);
#193=ADVANCED_FACE('',(#50,#33),#21,.T.);
#194=ADVANCED_FACE('',(#51,#34),#180,.F.);
#195=ADVANCED_FACE('',(#52,#35),#22,.T.);
#196=ADVANCED_FACE('',(#53,#36),#18,.F.);
#197=ADVANCED_FACE('',(#54,#37),#181,.F.);
#198=ADVANCED_FACE('',(#38,#39),#15,.T.);
#199=ADVANCED_FACE('',(#55,#40),#182,.T.);
#200=ADVANCED_FACE('',(#56,#41),#183,.T.);
#201=CLOSED_SHELL('',(#184,#185,#186,#187,#188,#189,#190,#191,#192,#193,
#194,#195,#196,#197,#198,#199,#200));
#202=MANIFOLD_SOLID_BREP('Volumenk\X\F6rper2',#201);
#203=AXIS2_PLACEMENT_3D('placement',#308,#238,#239);
#204=AXIS2_PLACEMENT_3D('',#309,#240,#241);
#205=AXIS2_PLACEMENT_3D('',#311,#242,#243);
#206=AXIS2_PLACEMENT_3D('',#313,#244,#245);
#207=AXIS2_PLACEMENT_3D('',#314,#246,#247);
#208=AXIS2_PLACEMENT_3D('',#316,#248,#249);
#209=AXIS2_PLACEMENT_3D('',#317,#250,#251);
#210=AXIS2_PLACEMENT_3D('',#319,#252,#253);
#211=AXIS2_PLACEMENT_3D('',#320,#254,#255);
#212=AXIS2_PLACEMENT_3D('',#322,#256,#257);
#213=AXIS2_PLACEMENT_3D('',#324,#258,#259);
#214=AXIS2_PLACEMENT_3D('',#325,#260,#261);
#215=AXIS2_PLACEMENT_3D('',#327,#262,#263);
#216=AXIS2_PLACEMENT_3D('',#328,#264,#265);
#217=AXIS2_PLACEMENT_3D('',#330,#266,#267);
#218=AXIS2_PLACEMENT_3D('',#331,#268,#269);
#219=AXIS2_PLACEMENT_3D('',#333,#270,#271);
#220=AXIS2_PLACEMENT_3D('',#335,#272,#273);
#221=AXIS2_PLACEMENT_3D('',#336,#274,#275);
#222=AXIS2_PLACEMENT_3D('',#338,#276,#277);
#223=AXIS2_PLACEMENT_3D('',#339,#278,#279);
#224=AXIS2_PLACEMENT_3D('',#341,#280,#281);
#225=AXIS2_PLACEMENT_3D('',#343,#282,#283);
#226=AXIS2_PLACEMENT_3D('',#344,#284,#285);
#227=AXIS2_PLACEMENT_3D('',#346,#286,#287);
#228=AXIS2_PLACEMENT_3D('',#347,#288,#289);
#229=AXIS2_PLACEMENT_3D('',#349,#290,#291);
#230=AXIS2_PLACEMENT_3D('',#350,#292,#293);
#231=AXIS2_PLACEMENT_3D('',#352,#294,#295);
#232=AXIS2_PLACEMENT_3D('',#353,#296,#297);
#233=AXIS2_PLACEMENT_3D('',#355,#298,#299);
#234=AXIS2_PLACEMENT_3D('',#356,#300,#301);
#235=AXIS2_PLACEMENT_3D('',#357,#302,#303);
#236=AXIS2_PLACEMENT_3D('',#358,#304,#305);
#237=AXIS2_PLACEMENT_3D('',#359,#306,#307);
#238=DIRECTION('axis',(0.,0.,1.));
#239=DIRECTION('refdir',(1.,0.,0.));
#240=DIRECTION('center_axis',(1.,-8.84765010849802E-013,0.));
#241=DIRECTION('ref_axis',(0.,0.,-1.));
#242=DIRECTION('center_axis',(1.,-8.84376978582881E-013,6.89735898605137E-029));
#243=DIRECTION('ref_axis',(-8.84376978582881E-013,-1.,3.06161699786839E-017));
#244=DIRECTION('center_axis',(-1.,8.85066942695701E-013,6.63712849999232E-029));
#245=DIRECTION('ref_axis',(-8.85066942695701E-013,-1.,3.06161699786838E-017));
#246=DIRECTION('center_axis',(1.,-8.84765010849802E-013,0.));
#247=DIRECTION('ref_axis',(8.84765010849802E-013,1.,0.));
#248=DIRECTION('center_axis',(1.,-8.84765010849802E-013,0.));
#249=DIRECTION('ref_axis',(0.,0.,-1.));
#250=DIRECTION('center_axis',(1.,-8.84765010849802E-013,0.));
#251=DIRECTION('ref_axis',(8.84765010849802E-013,1.,0.));
#252=DIRECTION('center_axis',(1.,-8.84765010849802E-013,0.));
#253=DIRECTION('ref_axis',(0.,0.,-1.));
#254=DIRECTION('center_axis',(1.,-8.84765010849802E-013,0.));
#255=DIRECTION('ref_axis',(0.,0.,-1.));
#256=DIRECTION('center_axis',(1.,-8.84765010849802E-013,0.));
#257=DIRECTION('ref_axis',(-8.84764898161725E-013,-1.,1.83697019872103E-016));
#258=DIRECTION('center_axis',(-1.,8.84765010849802E-013,0.));
#259=DIRECTION('ref_axis',(-8.84765010849802E-013,-1.,1.83697019872103E-016));
#260=DIRECTION('center_axis',(1.,-8.84765010849802E-013,0.));
#261=DIRECTION('ref_axis',(8.84765010849802E-013,1.,0.));
#262=DIRECTION('center_axis',(1.,-8.84765010849802E-013,0.));
#263=DIRECTION('ref_axis',(0.,0.,-1.));
#264=DIRECTION('center_axis',(1.,-8.84765010849802E-013,0.));
#265=DIRECTION('ref_axis',(0.,0.,-1.));
#266=DIRECTION('center_axis',(1.,-8.84765010849802E-013,0.));
#267=DIRECTION('ref_axis',(0.,0.,-1.));
#268=DIRECTION('center_axis',(-1.,8.85001196091589E-013,-4.29060104388802E-032));
#269=DIRECTION('ref_axis',(8.84957974212997E-013,1.,-1.81662537905617E-016));
#270=DIRECTION('center_axis',(1.,-8.85001196091589E-013,4.29060104388802E-032));
#271=DIRECTION('ref_axis',(8.85001196091589E-013,1.,-1.81662537905617E-016));
#272=DIRECTION('center_axis',(1.,-8.84765010849802E-013,0.));
#273=DIRECTION('ref_axis',(0.,0.,-1.));
#274=DIRECTION('center_axis',(1.,-8.84765010849802E-013,0.));
#275=DIRECTION('ref_axis',(8.84765010849802E-013,1.,0.));
#276=DIRECTION('center_axis',(1.,-8.84765010849802E-013,0.));
#277=DIRECTION('ref_axis',(0.,0.,-1.));
#278=DIRECTION('center_axis',(1.,-8.84765010849802E-013,0.));
#279=DIRECTION('ref_axis',(0.,0.,-1.));
#280=DIRECTION('center_axis',(1.,-8.84945702219193E-013,1.34457918134667E-028));
#281=DIRECTION('ref_axis',(-8.84945702219193E-013,-1.,3.06161699786838E-017));
#282=DIRECTION('center_axis',(-1.,8.84765010849802E-013,0.));
#283=DIRECTION('ref_axis',(-8.84753642772382E-013,-1.,1.83697019872103E-016));
#284=DIRECTION('center_axis',(1.,-8.84765010849802E-013,0.));
#285=DIRECTION('ref_axis',(8.84765010849802E-013,1.,0.));
#286=DIRECTION('center_axis',(-1.,8.84815914914438E-013,-9.68044703338451E-029));
#287=DIRECTION('ref_axis',(-8.84815914914438E-013,-1.,3.06161699786838E-017));
#288=DIRECTION('center_axis',(1.,-8.84765010849802E-013,0.));
#289=DIRECTION('ref_axis',(0.,0.,-1.));
#290=DIRECTION('center_axis',(1.,-8.84529200476005E-013,1.25270297930364E-028));
#291=DIRECTION('ref_axis',(-8.84529200476005E-013,-1.,3.06161699786838E-017));
#292=DIRECTION('center_axis',(1.,-8.84765010849802E-013,0.));
#293=DIRECTION('ref_axis',(8.84765010849802E-013,1.,0.));
#294=DIRECTION('center_axis',(1.,-8.84765010849802E-013,0.));
#295=DIRECTION('ref_axis',(0.,0.,-1.));
#296=DIRECTION('center_axis',(1.,-8.84765010849802E-013,0.));
#297=DIRECTION('ref_axis',(8.84765010849802E-013,1.,0.));
#298=DIRECTION('center_axis',(1.,-8.84765010849802E-013,0.));
#299=DIRECTION('ref_axis',(0.,0.,-1.));
#300=DIRECTION('center_axis',(1.,-8.84765010849802E-013,0.));
#301=DIRECTION('ref_axis',(0.,0.,-1.));
#302=DIRECTION('center_axis',(1.,-8.84765010849802E-013,0.));
#303=DIRECTION('ref_axis',(0.,0.,-1.));
#304=DIRECTION('center_axis',(1.,-8.84765010849802E-013,0.));
#305=DIRECTION('ref_axis',(0.,0.,-1.));
#306=DIRECTION('center_axis',(1.,-8.84765010849802E-013,0.));
#307=DIRECTION('ref_axis',(0.,0.,-1.));
#308=CARTESIAN_POINT('',(0.,0.,0.));
#309=CARTESIAN_POINT('Origin',(-113.608960413534,1.00517233092915E-010,
0.));
#310=CARTESIAN_POINT('',(-112.625169912433,25.0271171175008,-1.53246894348557E-015));
#311=CARTESIAN_POINT('Origin',(-112.625169912455,9.96447369061571E-011,
-3.83117235871391E-015));
#312=CARTESIAN_POINT('',(-113.136258469604,24.3252163819904,-7.44744959516219E-015));
#313=CARTESIAN_POINT('Origin',(-113.136258469625,1.00093267008106E-010,
-3.72372479758109E-015));
#314=CARTESIAN_POINT('Origin',(-112.105793553133,9.91872836493637E-011,
0.));
#315=CARTESIAN_POINT('',(-111.5,31.2,0.));
#316=CARTESIAN_POINT('Origin',(-111.500000000028,9.86512987097774E-011,
0.));
#317=CARTESIAN_POINT('Origin',(-120.755793553127,1.06840500993209E-010,
0.));
#318=CARTESIAN_POINT('',(-128.8,15.9229319078819,0.));
#319=CARTESIAN_POINT('Origin',(-128.800000000014,1.13957733397467E-010,
0.));
#320=CARTESIAN_POINT('Origin',(-0.500000000028047,4.42382505449719E-013,
0.));
#321=CARTESIAN_POINT('',(-0.499999999998407,33.4999999999521,-2.05128338856886E-015));
#322=CARTESIAN_POINT('Origin',(-0.500000000028047,4.42382505449719E-013,
0.));
#323=CARTESIAN_POINT('',(1.15016680946863E-012,32.9999999999516,-1.01033360929509E-014));
#324=CARTESIAN_POINT('Origin',(-2.80470785485321E-011,2.481800584036E-023,
0.));
#325=CARTESIAN_POINT('Origin',(-54.6500000000296,4.83524078429679E-011,
0.));
#326=CARTESIAN_POINT('',(-109.3,33.5,0.));
#327=CARTESIAN_POINT('Origin',(-109.30000000003,9.67048156859096E-011,0.));
#328=CARTESIAN_POINT('Origin',(0.,31.7,0.));
#329=CARTESIAN_POINT('',(0.,31.7,0.));
#330=CARTESIAN_POINT('Origin',(-2.80470508439387E-011,2.48150492442424E-023,
0.));
#331=CARTESIAN_POINT('Origin',(-129.139963976232,1.14258521628574E-010,
0.));
#332=CARTESIAN_POINT('',(-129.139963976244,-13.3749999997702,7.91771350621197E-016));
#333=CARTESIAN_POINT('Origin',(-129.139963976232,1.14258521628574E-010,
-2.7264397862904E-046));
#334=CARTESIAN_POINT('',(-130.6,14.0081441885609,0.));
#335=CARTESIAN_POINT('Origin',(-130.600000000012,1.15550310416995E-010,
0.));
#336=CARTESIAN_POINT('Origin',(-129.700000000012,1.1475402190723E-010,0.));
#337=CARTESIAN_POINT('',(-128.8,13.3749999999984,0.));
#338=CARTESIAN_POINT('Origin',(-128.800000000012,1.13957733397465E-010,
0.));
#339=CARTESIAN_POINT('Origin',(-111.428527436694,9.85880622865038E-011,
0.));
#340=CARTESIAN_POINT('',(-113.396108438824,30.9727319577915,-1.89653285264177E-015));
#341=CARTESIAN_POINT('Origin',(-113.396108438851,1.00328634289326E-010,
-4.74133213160443E-015));
#342=CARTESIAN_POINT('',(-112.847545727778,32.0234811350886,-9.80436341737992E-015));
#343=CARTESIAN_POINT('Origin',(-112.847545727806,9.98435600202359E-011,
0.));
#344=CARTESIAN_POINT('Origin',(-113.827298056118,1.00710410599625E-010,
0.));
#345=CARTESIAN_POINT('',(-113.490424174338,30.4552990057785,-9.3242461110948E-015));
#346=CARTESIAN_POINT('Origin',(-113.490424174365,1.00410790793148E-010,
-4.6621230555474E-015));
#347=CARTESIAN_POINT('Origin',(-123.328329185153,1.0911659050959E-010,0.));
#348=CARTESIAN_POINT('',(-118.601309746048,23.4362916506747,-1.4350589776877E-015));
#349=CARTESIAN_POINT('Origin',(-118.601309746069,1.04933839395471E-010,
-3.58764744421926E-015));
#350=CARTESIAN_POINT('Origin',(-121.159052915881,1.07197290767671E-010,
0.));
#351=CARTESIAN_POINT('',(-127.963509719538,18.4142560579587,0.));
#352=CARTESIAN_POINT('Origin',(-127.963509719555,1.132176360654E-010,0.));
#353=CARTESIAN_POINT('Origin',(-55.5000000000281,4.91044581021888E-011,
0.));
#354=CARTESIAN_POINT('',(-111.,31.7,0.));
#355=CARTESIAN_POINT('Origin',(-111.000000000028,9.82089162043529E-011,
0.));
#356=CARTESIAN_POINT('Origin',(-111.000000000028,9.82089162043525E-011,
0.));
#357=CARTESIAN_POINT('Origin',(-128.8,13.3749999999984,0.));
#358=CARTESIAN_POINT('Origin',(-125.600000000012,1.11126485362746E-010,
0.));
#359=CARTESIAN_POINT('Origin',(-109.300000000025,9.67048156859057E-011,
0.));
#360=UNCERTAINTY_MEASURE_WITH_UNIT(LENGTH_MEASURE(0.01),#364,
'DISTANCE_ACCURACY_VALUE',
'Maximum model space distance between geometric entities at asserted c
onnectivities');
#361=UNCERTAINTY_MEASURE_WITH_UNIT(LENGTH_MEASURE(1.E-006),#364,
'DISTANCE_ACCURACY_VALUE',
'Maximum model space distance between geometric entities at asserted c
onnectivities');
#362=(
GEOMETRIC_REPRESENTATION_CONTEXT(3)
GLOBAL_UNCERTAINTY_ASSIGNED_CONTEXT((#360))
GLOBAL_UNIT_ASSIGNED_CONTEXT((#364,#367,#365))
REPRESENTATION_CONTEXT('','3D')
);
#363=(
GEOMETRIC_REPRESENTATION_CONTEXT(3)
GLOBAL_UNCERTAINTY_ASSIGNED_CONTEXT((#361))
GLOBAL_UNIT_ASSIGNED_CONTEXT((#364,#367,#365))
REPRESENTATION_CONTEXT('','3D')
);
#364=(
LENGTH_UNIT()
NAMED_UNIT(*)
SI_UNIT(.MILLI.,.METRE.)
);
#365=(
NAMED_UNIT(*)
SI_UNIT($,.STERADIAN.)
SOLID_ANGLE_UNIT()
);
#366=DIMENSIONAL_EXPONENTS(0.,0.,0.,0.,0.,0.,0.);
#367=(
CONVERSION_BASED_UNIT('degree',#369)
NAMED_UNIT(#366)
PLANE_ANGLE_UNIT()
);
#368=(
NAMED_UNIT(*)
PLANE_ANGLE_UNIT()
SI_UNIT($,.RADIAN.)
);
#369=PLANE_ANGLE_MEASURE_WITH_UNIT(PLANE_ANGLE_MEASURE(0.01745329252),#368);
#370=SHAPE_DEFINITION_REPRESENTATION(#371,#372);
#371=PRODUCT_DEFINITION_SHAPE('',$,#374);
#372=SHAPE_REPRESENTATION('',(#203),#362);
#373=PRODUCT_DEFINITION_CONTEXT('part definition',#378,'design');
#374=PRODUCT_DEFINITION('Schutzkappe-01-BT-0002-00506110',
'Schutzkappe-01-BT-0002-00506110',#375,#373);
#375=PRODUCT_DEFINITION_FORMATION('',$,#380);
#376=PRODUCT_RELATED_PRODUCT_CATEGORY('Schutzkappe-01-BT-0002-00506110',
'Schutzkappe-01-BT-0002-00506110',(#380));
#377=APPLICATION_PROTOCOL_DEFINITION('international standard',
'automotive_design',2009,#378);
#378=APPLICATION_CONTEXT(
'Core Data for Automotive Mechanical Design Process');
#379=PRODUCT_CONTEXT('part definition',#378,'mechanical');
#380=PRODUCT('Schutzkappe-01-BT-0002-00506110',
'Schutzkappe-01-BT-0002-00506110',$,(#379));
#381=PRESENTATION_STYLE_ASSIGNMENT((#382));
#382=SURFACE_STYLE_USAGE(.BOTH.,#383);
#383=SURFACE_SIDE_STYLE($,(#384));
#384=SURFACE_STYLE_FILL_AREA(#385);
#385=FILL_AREA_STYLE($,(#386));
#386=FILL_AREA_STYLE_COLOUR($,#387);
#387=COLOUR_RGB('',0.250980392156863,0.250980392156863,0.250980392156863);
ENDSEC;
END-ISO-10303-21;
