ISO-10303-21;
HEADER;
/* Generated by software containing ST-Developer
 * from STEP Tools, Inc. (www.steptools.com) 
 */

FILE_DESCRIPTION(
/* description */ (
'Mehrfachdichteinsatz f\X\FCr Euro-Top D= 13,3mm; 3x5,0'),
/* implementation_level */ '2;1');

FILE_NAME(
/* name */ 
'Y:\\Produkte\\Produktdaten_Produktdarstellungen\\Produktdarstellungen
_Bilder-3DModelle-etc\\3D-Modelle\\Kundenversionen\\Jacob\\RST-SL\\Meh
rfachdichteinsatz\\05611350-RST.stp',
/* time_stamp */ '2020-10-06T14:34:33+02:00',
/* author */ ('sl'),
/* organization */ (''),
/* preprocessor_version */ 'ST-DEVELOPER v16.5',
/* originating_system */ 'Autodesk Inventor 2017',
/* authorisation */ '');

FILE_SCHEMA (('AUTOMOTIVE_DESIGN { 1 0 10303 214 3 1 1 }'));
ENDSEC;

DATA;
#10=MECHANICAL_DESIGN_GEOMETRIC_PRESENTATION_REPRESENTATION('',(#13),#197);
#11=SHAPE_REPRESENTATION_RELATIONSHIP('SRR','None',#206,#12);
#12=ADVANCED_BREP_SHAPE_REPRESENTATION('',(#14),#196);
#13=STYLED_ITEM('',(#215),#14);
#14=MANIFOLD_SOLID_BREP('Volumenk\X\F6rper1',#110);
#15=PLANE('',#132);
#16=PLANE('',#133);
#17=CYLINDRICAL_SURFACE('',#121,2.5);
#18=CYLINDRICAL_SURFACE('',#124,2.5);
#19=CYLINDRICAL_SURFACE('',#127,2.5);
#20=CYLINDRICAL_SURFACE('',#130,6.65);
#21=FACE_BOUND('',#40,.T.);
#22=FACE_BOUND('',#42,.T.);
#23=FACE_BOUND('',#44,.T.);
#24=FACE_BOUND('',#46,.T.);
#25=FACE_BOUND('',#48,.T.);
#26=FACE_BOUND('',#50,.T.);
#27=FACE_BOUND('',#51,.T.);
#28=FACE_BOUND('',#52,.T.);
#29=FACE_BOUND('',#54,.T.);
#30=FACE_BOUND('',#55,.T.);
#31=FACE_BOUND('',#56,.T.);
#32=FACE_OUTER_BOUND('',#39,.T.);
#33=FACE_OUTER_BOUND('',#41,.T.);
#34=FACE_OUTER_BOUND('',#43,.T.);
#35=FACE_OUTER_BOUND('',#45,.T.);
#36=FACE_OUTER_BOUND('',#47,.T.);
#37=FACE_OUTER_BOUND('',#49,.T.);
#38=FACE_OUTER_BOUND('',#53,.T.);
#39=EDGE_LOOP('',(#84));
#40=EDGE_LOOP('',(#85));
#41=EDGE_LOOP('',(#86));
#42=EDGE_LOOP('',(#87));
#43=EDGE_LOOP('',(#88));
#44=EDGE_LOOP('',(#89));
#45=EDGE_LOOP('',(#90));
#46=EDGE_LOOP('',(#91));
#47=EDGE_LOOP('',(#92));
#48=EDGE_LOOP('',(#93));
#49=EDGE_LOOP('',(#94));
#50=EDGE_LOOP('',(#95));
#51=EDGE_LOOP('',(#96));
#52=EDGE_LOOP('',(#97));
#53=EDGE_LOOP('',(#98));
#54=EDGE_LOOP('',(#99));
#55=EDGE_LOOP('',(#100));
#56=EDGE_LOOP('',(#101));
#57=CIRCLE('',#119,6.15);
#58=CIRCLE('',#120,6.65);
#59=CIRCLE('',#122,2.5);
#60=CIRCLE('',#123,2.5);
#61=CIRCLE('',#125,2.5);
#62=CIRCLE('',#126,2.5);
#63=CIRCLE('',#128,2.5);
#64=CIRCLE('',#129,2.5);
#65=CIRCLE('',#131,6.65);
#66=VERTEX_POINT('',#170);
#67=VERTEX_POINT('',#172);
#68=VERTEX_POINT('',#175);
#69=VERTEX_POINT('',#177);
#70=VERTEX_POINT('',#180);
#71=VERTEX_POINT('',#182);
#72=VERTEX_POINT('',#185);
#73=VERTEX_POINT('',#187);
#74=VERTEX_POINT('',#190);
#75=EDGE_CURVE('',#66,#66,#57,.T.);
#76=EDGE_CURVE('',#67,#67,#58,.T.);
#77=EDGE_CURVE('',#68,#68,#59,.T.);
#78=EDGE_CURVE('',#69,#69,#60,.T.);
#79=EDGE_CURVE('',#70,#70,#61,.T.);
#80=EDGE_CURVE('',#71,#71,#62,.T.);
#81=EDGE_CURVE('',#72,#72,#63,.T.);
#82=EDGE_CURVE('',#73,#73,#64,.T.);
#83=EDGE_CURVE('',#74,#74,#65,.T.);
#84=ORIENTED_EDGE('',*,*,#75,.F.);
#85=ORIENTED_EDGE('',*,*,#76,.T.);
#86=ORIENTED_EDGE('',*,*,#77,.F.);
#87=ORIENTED_EDGE('',*,*,#78,.F.);
#88=ORIENTED_EDGE('',*,*,#79,.F.);
#89=ORIENTED_EDGE('',*,*,#80,.F.);
#90=ORIENTED_EDGE('',*,*,#81,.F.);
#91=ORIENTED_EDGE('',*,*,#82,.F.);
#92=ORIENTED_EDGE('',*,*,#76,.F.);
#93=ORIENTED_EDGE('',*,*,#83,.F.);
#94=ORIENTED_EDGE('',*,*,#83,.T.);
#95=ORIENTED_EDGE('',*,*,#78,.T.);
#96=ORIENTED_EDGE('',*,*,#80,.T.);
#97=ORIENTED_EDGE('',*,*,#82,.T.);
#98=ORIENTED_EDGE('',*,*,#75,.T.);
#99=ORIENTED_EDGE('',*,*,#77,.T.);
#100=ORIENTED_EDGE('',*,*,#79,.T.);
#101=ORIENTED_EDGE('',*,*,#81,.T.);
#102=CONICAL_SURFACE('',#118,6.4,45.);
#103=ADVANCED_FACE('',(#32,#21),#102,.F.);
#104=ADVANCED_FACE('',(#33,#22),#17,.F.);
#105=ADVANCED_FACE('',(#34,#23),#18,.F.);
#106=ADVANCED_FACE('',(#35,#24),#19,.F.);
#107=ADVANCED_FACE('',(#36,#25),#20,.T.);
#108=ADVANCED_FACE('',(#37,#26,#27,#28),#15,.F.);
#109=ADVANCED_FACE('',(#38,#29,#30,#31),#16,.T.);
#110=CLOSED_SHELL('',(#103,#104,#105,#106,#107,#108,#109));
#111=DATE_TIME_ROLE('creation_date');
#112=APPLIED_DATE_AND_TIME_ASSIGNMENT(#113,#111,(#208));
#113=DATE_AND_TIME(#114,#115);
#114=CALENDAR_DATE(2020,5,10);
#115=LOCAL_TIME(22,0,0.,#116);
#116=COORDINATED_UNIVERSAL_TIME_OFFSET(0,0,.BEHIND.);
#117=AXIS2_PLACEMENT_3D('placement',#168,#134,#135);
#118=AXIS2_PLACEMENT_3D('',#169,#136,#137);
#119=AXIS2_PLACEMENT_3D('',#171,#138,#139);
#120=AXIS2_PLACEMENT_3D('',#173,#140,#141);
#121=AXIS2_PLACEMENT_3D('',#174,#142,#143);
#122=AXIS2_PLACEMENT_3D('',#176,#144,#145);
#123=AXIS2_PLACEMENT_3D('',#178,#146,#147);
#124=AXIS2_PLACEMENT_3D('',#179,#148,#149);
#125=AXIS2_PLACEMENT_3D('',#181,#150,#151);
#126=AXIS2_PLACEMENT_3D('',#183,#152,#153);
#127=AXIS2_PLACEMENT_3D('',#184,#154,#155);
#128=AXIS2_PLACEMENT_3D('',#186,#156,#157);
#129=AXIS2_PLACEMENT_3D('',#188,#158,#159);
#130=AXIS2_PLACEMENT_3D('',#189,#160,#161);
#131=AXIS2_PLACEMENT_3D('',#191,#162,#163);
#132=AXIS2_PLACEMENT_3D('',#192,#164,#165);
#133=AXIS2_PLACEMENT_3D('',#193,#166,#167);
#134=DIRECTION('axis',(0.,0.,1.));
#135=DIRECTION('refdir',(1.,0.,0.));
#136=DIRECTION('center_axis',(0.,0.,1.));
#137=DIRECTION('ref_axis',(-1.,0.,0.));
#138=DIRECTION('center_axis',(0.,0.,1.));
#139=DIRECTION('ref_axis',(-1.,0.,0.));
#140=DIRECTION('center_axis',(0.,0.,1.));
#141=DIRECTION('ref_axis',(-1.,0.,0.));
#142=DIRECTION('center_axis',(0.,0.,1.));
#143=DIRECTION('ref_axis',(-1.,0.,0.));
#144=DIRECTION('center_axis',(0.,0.,-1.));
#145=DIRECTION('ref_axis',(-1.,0.,0.));
#146=DIRECTION('center_axis',(0.,0.,1.));
#147=DIRECTION('ref_axis',(-1.,0.,0.));
#148=DIRECTION('center_axis',(0.,0.,1.));
#149=DIRECTION('ref_axis',(-1.,0.,0.));
#150=DIRECTION('center_axis',(0.,0.,-1.));
#151=DIRECTION('ref_axis',(-1.,0.,0.));
#152=DIRECTION('center_axis',(0.,0.,1.));
#153=DIRECTION('ref_axis',(-1.,0.,0.));
#154=DIRECTION('center_axis',(0.,0.,1.));
#155=DIRECTION('ref_axis',(-1.,0.,0.));
#156=DIRECTION('center_axis',(0.,0.,-1.));
#157=DIRECTION('ref_axis',(-1.,0.,0.));
#158=DIRECTION('center_axis',(0.,0.,1.));
#159=DIRECTION('ref_axis',(-1.,0.,0.));
#160=DIRECTION('center_axis',(0.,0.,1.));
#161=DIRECTION('ref_axis',(-1.,0.,0.));
#162=DIRECTION('center_axis',(0.,0.,-1.));
#163=DIRECTION('ref_axis',(-1.,0.,0.));
#164=DIRECTION('center_axis',(0.,0.,1.));
#165=DIRECTION('ref_axis',(1.,0.,0.));
#166=DIRECTION('center_axis',(0.,0.,1.));
#167=DIRECTION('ref_axis',(1.,0.,0.));
#168=CARTESIAN_POINT('',(0.,0.,0.));
#169=CARTESIAN_POINT('Origin',(0.,0.,8.25));
#170=CARTESIAN_POINT('',(6.15,7.53157781475622E-16,8.));
#171=CARTESIAN_POINT('Origin',(0.,0.,8.));
#172=CARTESIAN_POINT('',(6.65,8.1439012143299E-16,8.5));
#173=CARTESIAN_POINT('Origin',(0.,0.,8.5));
#174=CARTESIAN_POINT('Origin',(2.59807621135332,-1.5,0.));
#175=CARTESIAN_POINT('',(5.09807621135332,-1.5,8.));
#176=CARTESIAN_POINT('Origin',(2.59807621135332,-1.5,8.));
#177=CARTESIAN_POINT('',(5.09807621135332,-1.5,0.));
#178=CARTESIAN_POINT('Origin',(2.59807621135332,-1.5,0.));
#179=CARTESIAN_POINT('Origin',(-2.59807621135332,-1.5,0.));
#180=CARTESIAN_POINT('',(-0.0980762113533162,-1.5,8.));
#181=CARTESIAN_POINT('Origin',(-2.59807621135332,-1.5,8.));
#182=CARTESIAN_POINT('',(-0.0980762113533162,-1.5,0.));
#183=CARTESIAN_POINT('Origin',(-2.59807621135332,-1.5,0.));
#184=CARTESIAN_POINT('Origin',(0.,3.,0.));
#185=CARTESIAN_POINT('',(2.5,3.,8.));
#186=CARTESIAN_POINT('Origin',(0.,3.,8.));
#187=CARTESIAN_POINT('',(2.5,3.,0.));
#188=CARTESIAN_POINT('Origin',(0.,3.,0.));
#189=CARTESIAN_POINT('Origin',(0.,0.,0.));
#190=CARTESIAN_POINT('',(6.65,8.1439012143299E-16,0.));
#191=CARTESIAN_POINT('Origin',(0.,0.,0.));
#192=CARTESIAN_POINT('Origin',(-6.24368612688417E-16,-1.39125692308917E-16,
0.));
#193=CARTESIAN_POINT('Origin',(-6.24368612688417E-16,-1.39125692308917E-16,
8.));
#194=UNCERTAINTY_MEASURE_WITH_UNIT(LENGTH_MEASURE(0.01),#198,
'DISTANCE_ACCURACY_VALUE',
'Maximum model space distance between geometric entities at asserted c
onnectivities');
#195=UNCERTAINTY_MEASURE_WITH_UNIT(LENGTH_MEASURE(1.E-6),#198,
'DISTANCE_ACCURACY_VALUE',
'Maximum model space distance between geometric entities at asserted c
onnectivities');
#196=(
GEOMETRIC_REPRESENTATION_CONTEXT(3)
GLOBAL_UNCERTAINTY_ASSIGNED_CONTEXT((#194))
GLOBAL_UNIT_ASSIGNED_CONTEXT((#198,#201,#199))
REPRESENTATION_CONTEXT('','3D')
);
#197=(
GEOMETRIC_REPRESENTATION_CONTEXT(3)
GLOBAL_UNCERTAINTY_ASSIGNED_CONTEXT((#195))
GLOBAL_UNIT_ASSIGNED_CONTEXT((#198,#201,#199))
REPRESENTATION_CONTEXT('','3D')
);
#198=(
LENGTH_UNIT()
NAMED_UNIT(*)
SI_UNIT(.MILLI.,.METRE.)
);
#199=(
NAMED_UNIT(*)
SI_UNIT($,.STERADIAN.)
SOLID_ANGLE_UNIT()
);
#200=DIMENSIONAL_EXPONENTS(0.,0.,0.,0.,0.,0.,0.);
#201=(
CONVERSION_BASED_UNIT('degree',#203)
NAMED_UNIT(#200)
PLANE_ANGLE_UNIT()
);
#202=(
NAMED_UNIT(*)
PLANE_ANGLE_UNIT()
SI_UNIT($,.RADIAN.)
);
#203=PLANE_ANGLE_MEASURE_WITH_UNIT(PLANE_ANGLE_MEASURE(0.01745329252),#202);
#204=SHAPE_DEFINITION_REPRESENTATION(#205,#206);
#205=PRODUCT_DEFINITION_SHAPE('',$,#208);
#206=SHAPE_REPRESENTATION('',(#117),#196);
#207=PRODUCT_DEFINITION_CONTEXT('part definition',#212,'design');
#208=PRODUCT_DEFINITION('05611350',
'Mehrfachdichteinsatz-20-BT-0008-05611350',#209,#207);
#209=PRODUCT_DEFINITION_FORMATION('',$,#214);
#210=PRODUCT_RELATED_PRODUCT_CATEGORY(
'Mehrfachdichteinsatz-20-BT-0008-05611350',
'Mehrfachdichteinsatz-20-BT-0008-05611350',(#214));
#211=APPLICATION_PROTOCOL_DEFINITION('international standard',
'automotive_design',2009,#212);
#212=APPLICATION_CONTEXT(
'Core Data for Automotive Mechanical Design Process');
#213=PRODUCT_CONTEXT('part definition',#212,'mechanical');
#214=PRODUCT('05611350','Mehrfachdichteinsatz-20-BT-0008-05611350',
'Mehrfachdichteinsatz f\X\FCr Euro-Top D= 13,3mm; 3x5,0',(#213));
#215=PRESENTATION_STYLE_ASSIGNMENT((#216));
#216=SURFACE_STYLE_USAGE(.BOTH.,#217);
#217=SURFACE_SIDE_STYLE('',(#218));
#218=SURFACE_STYLE_FILL_AREA(#219);
#219=FILL_AREA_STYLE('',(#220));
#220=FILL_AREA_STYLE_COLOUR('',#221);
#221=COLOUR_RGB('',0.250980392156863,0.250980392156863,0.250980392156863);
ENDSEC;
END-ISO-10303-21;
