ISO-10303-21;
HEADER;
/* Generated by software containing ST-Developer
 * from STEP Tools, Inc. (www.steptools.com) 
 */

FILE_DESCRIPTION(
/* description */ (
'Mehrfachdichteinsatz f\X\FCr Euro-Top D= 22,2mm; 4x7,0'),
/* implementation_level */ '2;1');

FILE_NAME(
/* name */ 
'Y:\\Produkte\\Produktdaten_Produktdarstellungen\\Produktdarstellungen
_Bilder-3DModelle-etc\\3D-Modelle\\Kundenversionen\\Jacob\\RST-SL\\Meh
rfachdichteinsatz\\05621470-RST.stp',
/* time_stamp */ '2020-10-06T14:48:04+02:00',
/* author */ ('sl'),
/* organization */ (''),
/* preprocessor_version */ 'ST-DEVELOPER v16.5',
/* originating_system */ 'Autodesk Inventor 2017',
/* authorisation */ '');

FILE_SCHEMA (('AUTOMOTIVE_DESIGN { 1 0 10303 214 3 1 1 }'));
ENDSEC;

DATA;
#10=MECHANICAL_DESIGN_GEOMETRIC_PRESENTATION_REPRESENTATION('',(#13),#231);
#11=SHAPE_REPRESENTATION_RELATIONSHIP('SRR','None',#240,#12);
#12=ADVANCED_BREP_SHAPE_REPRESENTATION('',(#14),#230);
#13=STYLED_ITEM('',(#249),#14);
#14=MANIFOLD_SOLID_BREP('Volumenk\X\F6rper1',#130);
#15=PLANE('',#155);
#16=PLANE('',#156);
#17=CYLINDRICAL_SURFACE('',#141,3.5);
#18=CYLINDRICAL_SURFACE('',#144,3.5);
#19=CYLINDRICAL_SURFACE('',#147,3.5);
#20=CYLINDRICAL_SURFACE('',#150,3.5);
#21=CYLINDRICAL_SURFACE('',#153,11.1);
#22=FACE_BOUND('',#45,.T.);
#23=FACE_BOUND('',#47,.T.);
#24=FACE_BOUND('',#49,.T.);
#25=FACE_BOUND('',#51,.T.);
#26=FACE_BOUND('',#53,.T.);
#27=FACE_BOUND('',#55,.T.);
#28=FACE_BOUND('',#57,.T.);
#29=FACE_BOUND('',#58,.T.);
#30=FACE_BOUND('',#59,.T.);
#31=FACE_BOUND('',#60,.T.);
#32=FACE_BOUND('',#62,.T.);
#33=FACE_BOUND('',#63,.T.);
#34=FACE_BOUND('',#64,.T.);
#35=FACE_BOUND('',#65,.T.);
#36=FACE_OUTER_BOUND('',#44,.T.);
#37=FACE_OUTER_BOUND('',#46,.T.);
#38=FACE_OUTER_BOUND('',#48,.T.);
#39=FACE_OUTER_BOUND('',#50,.T.);
#40=FACE_OUTER_BOUND('',#52,.T.);
#41=FACE_OUTER_BOUND('',#54,.T.);
#42=FACE_OUTER_BOUND('',#56,.T.);
#43=FACE_OUTER_BOUND('',#61,.T.);
#44=EDGE_LOOP('',(#99));
#45=EDGE_LOOP('',(#100));
#46=EDGE_LOOP('',(#101));
#47=EDGE_LOOP('',(#102));
#48=EDGE_LOOP('',(#103));
#49=EDGE_LOOP('',(#104));
#50=EDGE_LOOP('',(#105));
#51=EDGE_LOOP('',(#106));
#52=EDGE_LOOP('',(#107));
#53=EDGE_LOOP('',(#108));
#54=EDGE_LOOP('',(#109));
#55=EDGE_LOOP('',(#110));
#56=EDGE_LOOP('',(#111));
#57=EDGE_LOOP('',(#112));
#58=EDGE_LOOP('',(#113));
#59=EDGE_LOOP('',(#114));
#60=EDGE_LOOP('',(#115));
#61=EDGE_LOOP('',(#116));
#62=EDGE_LOOP('',(#117));
#63=EDGE_LOOP('',(#118));
#64=EDGE_LOOP('',(#119));
#65=EDGE_LOOP('',(#120));
#66=CIRCLE('',#139,10.6);
#67=CIRCLE('',#140,11.1);
#68=CIRCLE('',#142,3.5);
#69=CIRCLE('',#143,3.5);
#70=CIRCLE('',#145,3.5);
#71=CIRCLE('',#146,3.5);
#72=CIRCLE('',#148,3.5);
#73=CIRCLE('',#149,3.5);
#74=CIRCLE('',#151,3.5);
#75=CIRCLE('',#152,3.5);
#76=CIRCLE('',#154,11.1);
#77=VERTEX_POINT('',#199);
#78=VERTEX_POINT('',#201);
#79=VERTEX_POINT('',#204);
#80=VERTEX_POINT('',#206);
#81=VERTEX_POINT('',#209);
#82=VERTEX_POINT('',#211);
#83=VERTEX_POINT('',#214);
#84=VERTEX_POINT('',#216);
#85=VERTEX_POINT('',#219);
#86=VERTEX_POINT('',#221);
#87=VERTEX_POINT('',#224);
#88=EDGE_CURVE('',#77,#77,#66,.T.);
#89=EDGE_CURVE('',#78,#78,#67,.T.);
#90=EDGE_CURVE('',#79,#79,#68,.T.);
#91=EDGE_CURVE('',#80,#80,#69,.T.);
#92=EDGE_CURVE('',#81,#81,#70,.T.);
#93=EDGE_CURVE('',#82,#82,#71,.T.);
#94=EDGE_CURVE('',#83,#83,#72,.T.);
#95=EDGE_CURVE('',#84,#84,#73,.T.);
#96=EDGE_CURVE('',#85,#85,#74,.T.);
#97=EDGE_CURVE('',#86,#86,#75,.T.);
#98=EDGE_CURVE('',#87,#87,#76,.T.);
#99=ORIENTED_EDGE('',*,*,#88,.F.);
#100=ORIENTED_EDGE('',*,*,#89,.T.);
#101=ORIENTED_EDGE('',*,*,#90,.F.);
#102=ORIENTED_EDGE('',*,*,#91,.F.);
#103=ORIENTED_EDGE('',*,*,#92,.F.);
#104=ORIENTED_EDGE('',*,*,#93,.F.);
#105=ORIENTED_EDGE('',*,*,#94,.F.);
#106=ORIENTED_EDGE('',*,*,#95,.F.);
#107=ORIENTED_EDGE('',*,*,#96,.F.);
#108=ORIENTED_EDGE('',*,*,#97,.F.);
#109=ORIENTED_EDGE('',*,*,#89,.F.);
#110=ORIENTED_EDGE('',*,*,#98,.F.);
#111=ORIENTED_EDGE('',*,*,#98,.T.);
#112=ORIENTED_EDGE('',*,*,#91,.T.);
#113=ORIENTED_EDGE('',*,*,#93,.T.);
#114=ORIENTED_EDGE('',*,*,#95,.T.);
#115=ORIENTED_EDGE('',*,*,#97,.T.);
#116=ORIENTED_EDGE('',*,*,#88,.T.);
#117=ORIENTED_EDGE('',*,*,#90,.T.);
#118=ORIENTED_EDGE('',*,*,#92,.T.);
#119=ORIENTED_EDGE('',*,*,#94,.T.);
#120=ORIENTED_EDGE('',*,*,#96,.T.);
#121=CONICAL_SURFACE('',#138,10.85,45.);
#122=ADVANCED_FACE('',(#36,#22),#121,.F.);
#123=ADVANCED_FACE('',(#37,#23),#17,.F.);
#124=ADVANCED_FACE('',(#38,#24),#18,.F.);
#125=ADVANCED_FACE('',(#39,#25),#19,.F.);
#126=ADVANCED_FACE('',(#40,#26),#20,.F.);
#127=ADVANCED_FACE('',(#41,#27),#21,.T.);
#128=ADVANCED_FACE('',(#42,#28,#29,#30,#31),#15,.F.);
#129=ADVANCED_FACE('',(#43,#32,#33,#34,#35),#16,.T.);
#130=CLOSED_SHELL('',(#122,#123,#124,#125,#126,#127,#128,#129));
#131=DATE_TIME_ROLE('creation_date');
#132=APPLIED_DATE_AND_TIME_ASSIGNMENT(#133,#131,(#242));
#133=DATE_AND_TIME(#134,#135);
#134=CALENDAR_DATE(2020,5,10);
#135=LOCAL_TIME(22,0,0.,#136);
#136=COORDINATED_UNIVERSAL_TIME_OFFSET(0,0,.BEHIND.);
#137=AXIS2_PLACEMENT_3D('placement',#197,#157,#158);
#138=AXIS2_PLACEMENT_3D('',#198,#159,#160);
#139=AXIS2_PLACEMENT_3D('',#200,#161,#162);
#140=AXIS2_PLACEMENT_3D('',#202,#163,#164);
#141=AXIS2_PLACEMENT_3D('',#203,#165,#166);
#142=AXIS2_PLACEMENT_3D('',#205,#167,#168);
#143=AXIS2_PLACEMENT_3D('',#207,#169,#170);
#144=AXIS2_PLACEMENT_3D('',#208,#171,#172);
#145=AXIS2_PLACEMENT_3D('',#210,#173,#174);
#146=AXIS2_PLACEMENT_3D('',#212,#175,#176);
#147=AXIS2_PLACEMENT_3D('',#213,#177,#178);
#148=AXIS2_PLACEMENT_3D('',#215,#179,#180);
#149=AXIS2_PLACEMENT_3D('',#217,#181,#182);
#150=AXIS2_PLACEMENT_3D('',#218,#183,#184);
#151=AXIS2_PLACEMENT_3D('',#220,#185,#186);
#152=AXIS2_PLACEMENT_3D('',#222,#187,#188);
#153=AXIS2_PLACEMENT_3D('',#223,#189,#190);
#154=AXIS2_PLACEMENT_3D('',#225,#191,#192);
#155=AXIS2_PLACEMENT_3D('',#226,#193,#194);
#156=AXIS2_PLACEMENT_3D('',#227,#195,#196);
#157=DIRECTION('axis',(0.,0.,1.));
#158=DIRECTION('refdir',(1.,0.,0.));
#159=DIRECTION('center_axis',(0.,0.,1.));
#160=DIRECTION('ref_axis',(-1.,0.,0.));
#161=DIRECTION('center_axis',(0.,0.,1.));
#162=DIRECTION('ref_axis',(-1.,0.,0.));
#163=DIRECTION('center_axis',(0.,0.,1.));
#164=DIRECTION('ref_axis',(-1.,0.,0.));
#165=DIRECTION('center_axis',(0.,0.,1.));
#166=DIRECTION('ref_axis',(-1.,0.,0.));
#167=DIRECTION('center_axis',(0.,0.,-1.));
#168=DIRECTION('ref_axis',(-1.,0.,0.));
#169=DIRECTION('center_axis',(0.,0.,1.));
#170=DIRECTION('ref_axis',(-1.,0.,0.));
#171=DIRECTION('center_axis',(0.,0.,1.));
#172=DIRECTION('ref_axis',(-1.,0.,0.));
#173=DIRECTION('center_axis',(0.,0.,-1.));
#174=DIRECTION('ref_axis',(-1.,0.,0.));
#175=DIRECTION('center_axis',(0.,0.,1.));
#176=DIRECTION('ref_axis',(-1.,0.,0.));
#177=DIRECTION('center_axis',(0.,0.,1.));
#178=DIRECTION('ref_axis',(-1.,0.,0.));
#179=DIRECTION('center_axis',(0.,0.,-1.));
#180=DIRECTION('ref_axis',(-1.,0.,0.));
#181=DIRECTION('center_axis',(0.,0.,1.));
#182=DIRECTION('ref_axis',(-1.,0.,0.));
#183=DIRECTION('center_axis',(0.,0.,1.));
#184=DIRECTION('ref_axis',(-1.,0.,0.));
#185=DIRECTION('center_axis',(0.,0.,-1.));
#186=DIRECTION('ref_axis',(-1.,0.,0.));
#187=DIRECTION('center_axis',(0.,0.,1.));
#188=DIRECTION('ref_axis',(-1.,0.,0.));
#189=DIRECTION('center_axis',(0.,0.,1.));
#190=DIRECTION('ref_axis',(-1.,0.,0.));
#191=DIRECTION('center_axis',(0.,0.,-1.));
#192=DIRECTION('ref_axis',(-1.,0.,0.));
#193=DIRECTION('center_axis',(0.,0.,1.));
#194=DIRECTION('ref_axis',(1.,0.,0.));
#195=DIRECTION('center_axis',(0.,0.,1.));
#196=DIRECTION('ref_axis',(1.,0.,0.));
#197=CARTESIAN_POINT('',(0.,0.,0.));
#198=CARTESIAN_POINT('Origin',(0.,0.,10.75));
#199=CARTESIAN_POINT('',(10.6,1.29812560709619E-15,10.5));
#200=CARTESIAN_POINT('Origin',(0.,0.,10.5));
#201=CARTESIAN_POINT('',(11.1,1.35935794705356E-15,11.));
#202=CARTESIAN_POINT('Origin',(0.,0.,11.));
#203=CARTESIAN_POINT('Origin',(0.,5.3,0.));
#204=CARTESIAN_POINT('',(3.5,5.3,10.5));
#205=CARTESIAN_POINT('Origin',(0.,5.3,10.5));
#206=CARTESIAN_POINT('',(3.5,5.3,0.));
#207=CARTESIAN_POINT('Origin',(0.,5.3,0.));
#208=CARTESIAN_POINT('Origin',(-5.3,3.24531401774049E-16,0.));
#209=CARTESIAN_POINT('',(-1.8,7.53157781475622E-16,10.5));
#210=CARTESIAN_POINT('Origin',(-5.3,3.24531401774049E-16,10.5));
#211=CARTESIAN_POINT('',(-1.8,7.53157781475622E-16,0.));
#212=CARTESIAN_POINT('Origin',(-5.3,3.24531401774049E-16,0.));
#213=CARTESIAN_POINT('Origin',(-6.49062803548097E-16,-5.3,0.));
#214=CARTESIAN_POINT('',(3.5,-5.3,10.5));
#215=CARTESIAN_POINT('Origin',(-6.49062803548097E-16,-5.3,10.5));
#216=CARTESIAN_POINT('',(3.5,-5.3,0.));
#217=CARTESIAN_POINT('Origin',(-6.49062803548097E-16,-5.3,0.));
#218=CARTESIAN_POINT('Origin',(5.3,-9.73594205322146E-16,0.));
#219=CARTESIAN_POINT('',(8.8,-5.44967825620572E-16,10.5));
#220=CARTESIAN_POINT('Origin',(5.3,-9.73594205322146E-16,10.5));
#221=CARTESIAN_POINT('',(8.8,-5.44967825620572E-16,0.));
#222=CARTESIAN_POINT('Origin',(5.3,-9.73594205322146E-16,0.));
#223=CARTESIAN_POINT('Origin',(0.,0.,0.));
#224=CARTESIAN_POINT('',(11.1,1.35935794705356E-15,0.));
#225=CARTESIAN_POINT('Origin',(0.,0.,0.));
#226=CARTESIAN_POINT('Origin',(-4.46680136616372E-16,0.,0.));
#227=CARTESIAN_POINT('Origin',(-4.46680136616372E-16,0.,10.5));
#228=UNCERTAINTY_MEASURE_WITH_UNIT(LENGTH_MEASURE(0.01),#232,
'DISTANCE_ACCURACY_VALUE',
'Maximum model space distance between geometric entities at asserted c
onnectivities');
#229=UNCERTAINTY_MEASURE_WITH_UNIT(LENGTH_MEASURE(1.E-6),#232,
'DISTANCE_ACCURACY_VALUE',
'Maximum model space distance between geometric entities at asserted c
onnectivities');
#230=(
GEOMETRIC_REPRESENTATION_CONTEXT(3)
GLOBAL_UNCERTAINTY_ASSIGNED_CONTEXT((#228))
GLOBAL_UNIT_ASSIGNED_CONTEXT((#232,#235,#233))
REPRESENTATION_CONTEXT('','3D')
);
#231=(
GEOMETRIC_REPRESENTATION_CONTEXT(3)
GLOBAL_UNCERTAINTY_ASSIGNED_CONTEXT((#229))
GLOBAL_UNIT_ASSIGNED_CONTEXT((#232,#235,#233))
REPRESENTATION_CONTEXT('','3D')
);
#232=(
LENGTH_UNIT()
NAMED_UNIT(*)
SI_UNIT(.MILLI.,.METRE.)
);
#233=(
NAMED_UNIT(*)
SI_UNIT($,.STERADIAN.)
SOLID_ANGLE_UNIT()
);
#234=DIMENSIONAL_EXPONENTS(0.,0.,0.,0.,0.,0.,0.);
#235=(
CONVERSION_BASED_UNIT('degree',#237)
NAMED_UNIT(#234)
PLANE_ANGLE_UNIT()
);
#236=(
NAMED_UNIT(*)
PLANE_ANGLE_UNIT()
SI_UNIT($,.RADIAN.)
);
#237=PLANE_ANGLE_MEASURE_WITH_UNIT(PLANE_ANGLE_MEASURE(0.01745329252),#236);
#238=SHAPE_DEFINITION_REPRESENTATION(#239,#240);
#239=PRODUCT_DEFINITION_SHAPE('',$,#242);
#240=SHAPE_REPRESENTATION('',(#137),#230);
#241=PRODUCT_DEFINITION_CONTEXT('part definition',#246,'design');
#242=PRODUCT_DEFINITION('05621470',
'Mehrfachdichteinsatz-23-BT-0020-05621470',#243,#241);
#243=PRODUCT_DEFINITION_FORMATION('',$,#248);
#244=PRODUCT_RELATED_PRODUCT_CATEGORY(
'Mehrfachdichteinsatz-23-BT-0020-05621470',
'Mehrfachdichteinsatz-23-BT-0020-05621470',(#248));
#245=APPLICATION_PROTOCOL_DEFINITION('international standard',
'automotive_design',2009,#246);
#246=APPLICATION_CONTEXT(
'Core Data for Automotive Mechanical Design Process');
#247=PRODUCT_CONTEXT('part definition',#246,'mechanical');
#248=PRODUCT('05621470','Mehrfachdichteinsatz-23-BT-0020-05621470',
'Mehrfachdichteinsatz f\X\FCr Euro-Top D= 22,2mm; 4x7,0',(#247));
#249=PRESENTATION_STYLE_ASSIGNMENT((#250));
#250=SURFACE_STYLE_USAGE(.BOTH.,#251);
#251=SURFACE_SIDE_STYLE('',(#252));
#252=SURFACE_STYLE_FILL_AREA(#253);
#253=FILL_AREA_STYLE('',(#254));
#254=FILL_AREA_STYLE_COLOUR('',#255);
#255=COLOUR_RGB('',0.250980392156863,0.250980392156863,0.250980392156863);
ENDSEC;
END-ISO-10303-21;
