ISO-10303-21;
HEADER;
/* Generated by software containing ST-Developer
 * from STEP Tools, Inc. (www.steptools.com) 
 */

FILE_DESCRIPTION(
/* description */ (
'Mehrfachdichteinsatz f\X\FCr Euro-Top D= 29,8mm; 8x5,0'),
/* implementation_level */ '2;1');

FILE_NAME(
/* name */ 
'Y:\\Produkte\\Produktdaten_Produktdarstellungen\\Produktdarstellungen
_Bilder-3DModelle-etc\\3D-Modelle\\Kundenversionen\\Jacob\\RST-SL\\Meh
rfachdichteinsatz\\05629850-RST.stp',
/* time_stamp */ '2020-10-06T14:53:05+02:00',
/* author */ ('sl'),
/* organization */ (''),
/* preprocessor_version */ 'ST-DEVELOPER v16.5',
/* originating_system */ 'Autodesk Inventor 2017',
/* authorisation */ '');

FILE_SCHEMA (('AUTOMOTIVE_DESIGN { 1 0 10303 214 3 1 1 }'));
ENDSEC;

DATA;
#10=MECHANICAL_DESIGN_GEOMETRIC_PRESENTATION_REPRESENTATION('',(#13),#367);
#11=SHAPE_REPRESENTATION_RELATIONSHIP('SRR','None',#376,#12);
#12=ADVANCED_BREP_SHAPE_REPRESENTATION('',(#14),#366);
#13=STYLED_ITEM('',(#385),#14);
#14=MANIFOLD_SOLID_BREP('Volumenk\X\F6rper1',#210);
#15=PLANE('',#247);
#16=PLANE('',#248);
#17=CYLINDRICAL_SURFACE('',#221,2.5);
#18=CYLINDRICAL_SURFACE('',#224,2.5);
#19=CYLINDRICAL_SURFACE('',#227,2.5);
#20=CYLINDRICAL_SURFACE('',#230,2.5);
#21=CYLINDRICAL_SURFACE('',#233,2.5);
#22=CYLINDRICAL_SURFACE('',#236,2.5);
#23=CYLINDRICAL_SURFACE('',#239,2.5);
#24=CYLINDRICAL_SURFACE('',#242,2.5);
#25=CYLINDRICAL_SURFACE('',#245,14.9);
#26=FACE_BOUND('',#65,.T.);
#27=FACE_BOUND('',#67,.T.);
#28=FACE_BOUND('',#69,.T.);
#29=FACE_BOUND('',#71,.T.);
#30=FACE_BOUND('',#73,.T.);
#31=FACE_BOUND('',#75,.T.);
#32=FACE_BOUND('',#77,.T.);
#33=FACE_BOUND('',#79,.T.);
#34=FACE_BOUND('',#81,.T.);
#35=FACE_BOUND('',#83,.T.);
#36=FACE_BOUND('',#85,.T.);
#37=FACE_BOUND('',#86,.T.);
#38=FACE_BOUND('',#87,.T.);
#39=FACE_BOUND('',#88,.T.);
#40=FACE_BOUND('',#89,.T.);
#41=FACE_BOUND('',#90,.T.);
#42=FACE_BOUND('',#91,.T.);
#43=FACE_BOUND('',#92,.T.);
#44=FACE_BOUND('',#94,.T.);
#45=FACE_BOUND('',#95,.T.);
#46=FACE_BOUND('',#96,.T.);
#47=FACE_BOUND('',#97,.T.);
#48=FACE_BOUND('',#98,.T.);
#49=FACE_BOUND('',#99,.T.);
#50=FACE_BOUND('',#100,.T.);
#51=FACE_BOUND('',#101,.T.);
#52=FACE_OUTER_BOUND('',#64,.T.);
#53=FACE_OUTER_BOUND('',#66,.T.);
#54=FACE_OUTER_BOUND('',#68,.T.);
#55=FACE_OUTER_BOUND('',#70,.T.);
#56=FACE_OUTER_BOUND('',#72,.T.);
#57=FACE_OUTER_BOUND('',#74,.T.);
#58=FACE_OUTER_BOUND('',#76,.T.);
#59=FACE_OUTER_BOUND('',#78,.T.);
#60=FACE_OUTER_BOUND('',#80,.T.);
#61=FACE_OUTER_BOUND('',#82,.T.);
#62=FACE_OUTER_BOUND('',#84,.T.);
#63=FACE_OUTER_BOUND('',#93,.T.);
#64=EDGE_LOOP('',(#159));
#65=EDGE_LOOP('',(#160));
#66=EDGE_LOOP('',(#161));
#67=EDGE_LOOP('',(#162));
#68=EDGE_LOOP('',(#163));
#69=EDGE_LOOP('',(#164));
#70=EDGE_LOOP('',(#165));
#71=EDGE_LOOP('',(#166));
#72=EDGE_LOOP('',(#167));
#73=EDGE_LOOP('',(#168));
#74=EDGE_LOOP('',(#169));
#75=EDGE_LOOP('',(#170));
#76=EDGE_LOOP('',(#171));
#77=EDGE_LOOP('',(#172));
#78=EDGE_LOOP('',(#173));
#79=EDGE_LOOP('',(#174));
#80=EDGE_LOOP('',(#175));
#81=EDGE_LOOP('',(#176));
#82=EDGE_LOOP('',(#177));
#83=EDGE_LOOP('',(#178));
#84=EDGE_LOOP('',(#179));
#85=EDGE_LOOP('',(#180));
#86=EDGE_LOOP('',(#181));
#87=EDGE_LOOP('',(#182));
#88=EDGE_LOOP('',(#183));
#89=EDGE_LOOP('',(#184));
#90=EDGE_LOOP('',(#185));
#91=EDGE_LOOP('',(#186));
#92=EDGE_LOOP('',(#187));
#93=EDGE_LOOP('',(#188));
#94=EDGE_LOOP('',(#189));
#95=EDGE_LOOP('',(#190));
#96=EDGE_LOOP('',(#191));
#97=EDGE_LOOP('',(#192));
#98=EDGE_LOOP('',(#193));
#99=EDGE_LOOP('',(#194));
#100=EDGE_LOOP('',(#195));
#101=EDGE_LOOP('',(#196));
#102=CIRCLE('',#219,14.4);
#103=CIRCLE('',#220,14.9);
#104=CIRCLE('',#222,2.5);
#105=CIRCLE('',#223,2.5);
#106=CIRCLE('',#225,2.5);
#107=CIRCLE('',#226,2.5);
#108=CIRCLE('',#228,2.5);
#109=CIRCLE('',#229,2.5);
#110=CIRCLE('',#231,2.5);
#111=CIRCLE('',#232,2.5);
#112=CIRCLE('',#234,2.5);
#113=CIRCLE('',#235,2.5);
#114=CIRCLE('',#237,2.5);
#115=CIRCLE('',#238,2.5);
#116=CIRCLE('',#240,2.5);
#117=CIRCLE('',#241,2.5);
#118=CIRCLE('',#243,2.5);
#119=CIRCLE('',#244,2.5);
#120=CIRCLE('',#246,14.9);
#121=VERTEX_POINT('',#315);
#122=VERTEX_POINT('',#317);
#123=VERTEX_POINT('',#320);
#124=VERTEX_POINT('',#322);
#125=VERTEX_POINT('',#325);
#126=VERTEX_POINT('',#327);
#127=VERTEX_POINT('',#330);
#128=VERTEX_POINT('',#332);
#129=VERTEX_POINT('',#335);
#130=VERTEX_POINT('',#337);
#131=VERTEX_POINT('',#340);
#132=VERTEX_POINT('',#342);
#133=VERTEX_POINT('',#345);
#134=VERTEX_POINT('',#347);
#135=VERTEX_POINT('',#350);
#136=VERTEX_POINT('',#352);
#137=VERTEX_POINT('',#355);
#138=VERTEX_POINT('',#357);
#139=VERTEX_POINT('',#360);
#140=EDGE_CURVE('',#121,#121,#102,.T.);
#141=EDGE_CURVE('',#122,#122,#103,.T.);
#142=EDGE_CURVE('',#123,#123,#104,.T.);
#143=EDGE_CURVE('',#124,#124,#105,.T.);
#144=EDGE_CURVE('',#125,#125,#106,.T.);
#145=EDGE_CURVE('',#126,#126,#107,.T.);
#146=EDGE_CURVE('',#127,#127,#108,.T.);
#147=EDGE_CURVE('',#128,#128,#109,.T.);
#148=EDGE_CURVE('',#129,#129,#110,.T.);
#149=EDGE_CURVE('',#130,#130,#111,.T.);
#150=EDGE_CURVE('',#131,#131,#112,.T.);
#151=EDGE_CURVE('',#132,#132,#113,.T.);
#152=EDGE_CURVE('',#133,#133,#114,.T.);
#153=EDGE_CURVE('',#134,#134,#115,.T.);
#154=EDGE_CURVE('',#135,#135,#116,.T.);
#155=EDGE_CURVE('',#136,#136,#117,.T.);
#156=EDGE_CURVE('',#137,#137,#118,.T.);
#157=EDGE_CURVE('',#138,#138,#119,.T.);
#158=EDGE_CURVE('',#139,#139,#120,.T.);
#159=ORIENTED_EDGE('',*,*,#140,.F.);
#160=ORIENTED_EDGE('',*,*,#141,.T.);
#161=ORIENTED_EDGE('',*,*,#142,.F.);
#162=ORIENTED_EDGE('',*,*,#143,.F.);
#163=ORIENTED_EDGE('',*,*,#144,.F.);
#164=ORIENTED_EDGE('',*,*,#145,.F.);
#165=ORIENTED_EDGE('',*,*,#146,.F.);
#166=ORIENTED_EDGE('',*,*,#147,.F.);
#167=ORIENTED_EDGE('',*,*,#148,.F.);
#168=ORIENTED_EDGE('',*,*,#149,.F.);
#169=ORIENTED_EDGE('',*,*,#150,.F.);
#170=ORIENTED_EDGE('',*,*,#151,.F.);
#171=ORIENTED_EDGE('',*,*,#152,.F.);
#172=ORIENTED_EDGE('',*,*,#153,.F.);
#173=ORIENTED_EDGE('',*,*,#154,.F.);
#174=ORIENTED_EDGE('',*,*,#155,.F.);
#175=ORIENTED_EDGE('',*,*,#156,.F.);
#176=ORIENTED_EDGE('',*,*,#157,.F.);
#177=ORIENTED_EDGE('',*,*,#141,.F.);
#178=ORIENTED_EDGE('',*,*,#158,.F.);
#179=ORIENTED_EDGE('',*,*,#158,.T.);
#180=ORIENTED_EDGE('',*,*,#143,.T.);
#181=ORIENTED_EDGE('',*,*,#145,.T.);
#182=ORIENTED_EDGE('',*,*,#147,.T.);
#183=ORIENTED_EDGE('',*,*,#149,.T.);
#184=ORIENTED_EDGE('',*,*,#151,.T.);
#185=ORIENTED_EDGE('',*,*,#153,.T.);
#186=ORIENTED_EDGE('',*,*,#155,.T.);
#187=ORIENTED_EDGE('',*,*,#157,.T.);
#188=ORIENTED_EDGE('',*,*,#140,.T.);
#189=ORIENTED_EDGE('',*,*,#142,.T.);
#190=ORIENTED_EDGE('',*,*,#144,.T.);
#191=ORIENTED_EDGE('',*,*,#146,.T.);
#192=ORIENTED_EDGE('',*,*,#148,.T.);
#193=ORIENTED_EDGE('',*,*,#150,.T.);
#194=ORIENTED_EDGE('',*,*,#152,.T.);
#195=ORIENTED_EDGE('',*,*,#154,.T.);
#196=ORIENTED_EDGE('',*,*,#156,.T.);
#197=CONICAL_SURFACE('',#218,14.65,45.);
#198=ADVANCED_FACE('',(#52,#26),#197,.F.);
#199=ADVANCED_FACE('',(#53,#27),#17,.F.);
#200=ADVANCED_FACE('',(#54,#28),#18,.F.);
#201=ADVANCED_FACE('',(#55,#29),#19,.F.);
#202=ADVANCED_FACE('',(#56,#30),#20,.F.);
#203=ADVANCED_FACE('',(#57,#31),#21,.F.);
#204=ADVANCED_FACE('',(#58,#32),#22,.F.);
#205=ADVANCED_FACE('',(#59,#33),#23,.F.);
#206=ADVANCED_FACE('',(#60,#34),#24,.F.);
#207=ADVANCED_FACE('',(#61,#35),#25,.T.);
#208=ADVANCED_FACE('',(#62,#36,#37,#38,#39,#40,#41,#42,#43),#15,.F.);
#209=ADVANCED_FACE('',(#63,#44,#45,#46,#47,#48,#49,#50,#51),#16,.T.);
#210=CLOSED_SHELL('',(#198,#199,#200,#201,#202,#203,#204,#205,#206,#207,
#208,#209));
#211=DATE_TIME_ROLE('creation_date');
#212=APPLIED_DATE_AND_TIME_ASSIGNMENT(#213,#211,(#378));
#213=DATE_AND_TIME(#214,#215);
#214=CALENDAR_DATE(2020,5,10);
#215=LOCAL_TIME(22,0,0.,#216);
#216=COORDINATED_UNIVERSAL_TIME_OFFSET(0,0,.BEHIND.);
#217=AXIS2_PLACEMENT_3D('placement',#313,#249,#250);
#218=AXIS2_PLACEMENT_3D('',#314,#251,#252);
#219=AXIS2_PLACEMENT_3D('',#316,#253,#254);
#220=AXIS2_PLACEMENT_3D('',#318,#255,#256);
#221=AXIS2_PLACEMENT_3D('',#319,#257,#258);
#222=AXIS2_PLACEMENT_3D('',#321,#259,#260);
#223=AXIS2_PLACEMENT_3D('',#323,#261,#262);
#224=AXIS2_PLACEMENT_3D('',#324,#263,#264);
#225=AXIS2_PLACEMENT_3D('',#326,#265,#266);
#226=AXIS2_PLACEMENT_3D('',#328,#267,#268);
#227=AXIS2_PLACEMENT_3D('',#329,#269,#270);
#228=AXIS2_PLACEMENT_3D('',#331,#271,#272);
#229=AXIS2_PLACEMENT_3D('',#333,#273,#274);
#230=AXIS2_PLACEMENT_3D('',#334,#275,#276);
#231=AXIS2_PLACEMENT_3D('',#336,#277,#278);
#232=AXIS2_PLACEMENT_3D('',#338,#279,#280);
#233=AXIS2_PLACEMENT_3D('',#339,#281,#282);
#234=AXIS2_PLACEMENT_3D('',#341,#283,#284);
#235=AXIS2_PLACEMENT_3D('',#343,#285,#286);
#236=AXIS2_PLACEMENT_3D('',#344,#287,#288);
#237=AXIS2_PLACEMENT_3D('',#346,#289,#290);
#238=AXIS2_PLACEMENT_3D('',#348,#291,#292);
#239=AXIS2_PLACEMENT_3D('',#349,#293,#294);
#240=AXIS2_PLACEMENT_3D('',#351,#295,#296);
#241=AXIS2_PLACEMENT_3D('',#353,#297,#298);
#242=AXIS2_PLACEMENT_3D('',#354,#299,#300);
#243=AXIS2_PLACEMENT_3D('',#356,#301,#302);
#244=AXIS2_PLACEMENT_3D('',#358,#303,#304);
#245=AXIS2_PLACEMENT_3D('',#359,#305,#306);
#246=AXIS2_PLACEMENT_3D('',#361,#307,#308);
#247=AXIS2_PLACEMENT_3D('',#362,#309,#310);
#248=AXIS2_PLACEMENT_3D('',#363,#311,#312);
#249=DIRECTION('axis',(0.,0.,1.));
#250=DIRECTION('refdir',(1.,0.,0.));
#251=DIRECTION('center_axis',(0.,0.,1.));
#252=DIRECTION('ref_axis',(-1.,0.,0.));
#253=DIRECTION('center_axis',(0.,0.,1.));
#254=DIRECTION('ref_axis',(-1.,0.,0.));
#255=DIRECTION('center_axis',(0.,0.,1.));
#256=DIRECTION('ref_axis',(-1.,0.,0.));
#257=DIRECTION('center_axis',(0.,0.,1.));
#258=DIRECTION('ref_axis',(-1.,0.,0.));
#259=DIRECTION('center_axis',(0.,0.,-1.));
#260=DIRECTION('ref_axis',(-1.,0.,0.));
#261=DIRECTION('center_axis',(0.,0.,1.));
#262=DIRECTION('ref_axis',(-1.,0.,0.));
#263=DIRECTION('center_axis',(0.,0.,1.));
#264=DIRECTION('ref_axis',(-1.,0.,0.));
#265=DIRECTION('center_axis',(0.,0.,-1.));
#266=DIRECTION('ref_axis',(-1.,0.,0.));
#267=DIRECTION('center_axis',(0.,0.,1.));
#268=DIRECTION('ref_axis',(-1.,0.,0.));
#269=DIRECTION('center_axis',(0.,0.,1.));
#270=DIRECTION('ref_axis',(-1.,0.,0.));
#271=DIRECTION('center_axis',(0.,0.,-1.));
#272=DIRECTION('ref_axis',(-1.,0.,0.));
#273=DIRECTION('center_axis',(0.,0.,1.));
#274=DIRECTION('ref_axis',(-1.,0.,0.));
#275=DIRECTION('center_axis',(0.,0.,1.));
#276=DIRECTION('ref_axis',(-1.,0.,0.));
#277=DIRECTION('center_axis',(0.,0.,-1.));
#278=DIRECTION('ref_axis',(-1.,0.,0.));
#279=DIRECTION('center_axis',(0.,0.,1.));
#280=DIRECTION('ref_axis',(-1.,0.,0.));
#281=DIRECTION('center_axis',(0.,0.,1.));
#282=DIRECTION('ref_axis',(-1.,0.,0.));
#283=DIRECTION('center_axis',(0.,0.,-1.));
#284=DIRECTION('ref_axis',(-1.,0.,0.));
#285=DIRECTION('center_axis',(0.,0.,1.));
#286=DIRECTION('ref_axis',(-1.,0.,0.));
#287=DIRECTION('center_axis',(0.,0.,1.));
#288=DIRECTION('ref_axis',(-1.,0.,0.));
#289=DIRECTION('center_axis',(0.,0.,-1.));
#290=DIRECTION('ref_axis',(-1.,0.,0.));
#291=DIRECTION('center_axis',(0.,0.,1.));
#292=DIRECTION('ref_axis',(-1.,0.,0.));
#293=DIRECTION('center_axis',(0.,0.,1.));
#294=DIRECTION('ref_axis',(-1.,0.,0.));
#295=DIRECTION('center_axis',(0.,0.,-1.));
#296=DIRECTION('ref_axis',(-1.,0.,0.));
#297=DIRECTION('center_axis',(0.,0.,1.));
#298=DIRECTION('ref_axis',(-1.,0.,0.));
#299=DIRECTION('center_axis',(0.,0.,1.));
#300=DIRECTION('ref_axis',(-1.,0.,0.));
#301=DIRECTION('center_axis',(0.,0.,-1.));
#302=DIRECTION('ref_axis',(-1.,0.,0.));
#303=DIRECTION('center_axis',(0.,0.,1.));
#304=DIRECTION('ref_axis',(-1.,0.,0.));
#305=DIRECTION('center_axis',(0.,0.,1.));
#306=DIRECTION('ref_axis',(-1.,0.,0.));
#307=DIRECTION('center_axis',(0.,0.,-1.));
#308=DIRECTION('ref_axis',(-1.,0.,0.));
#309=DIRECTION('center_axis',(0.,0.,1.));
#310=DIRECTION('ref_axis',(1.,0.,0.));
#311=DIRECTION('center_axis',(0.,0.,1.));
#312=DIRECTION('ref_axis',(1.,0.,0.));
#313=CARTESIAN_POINT('',(0.,0.,0.));
#314=CARTESIAN_POINT('Origin',(0.,0.,12.75));
#315=CARTESIAN_POINT('',(14.4,1.76349139077219E-15,12.5));
#316=CARTESIAN_POINT('Origin',(0.,0.,12.5));
#317=CARTESIAN_POINT('',(14.9,1.82472373072956E-15,13.));
#318=CARTESIAN_POINT('Origin',(0.,0.,13.));
#319=CARTESIAN_POINT('Origin',(6.92964645562817,6.92964645562816,0.));
#320=CARTESIAN_POINT('',(9.42964645562817,6.92964645562816,12.5));
#321=CARTESIAN_POINT('Origin',(6.92964645562817,6.92964645562816,12.5));
#322=CARTESIAN_POINT('',(9.42964645562817,6.92964645562816,0.));
#323=CARTESIAN_POINT('Origin',(6.92964645562817,6.92964645562816,0.));
#324=CARTESIAN_POINT('Origin',(9.8,-1.80023079474661E-15,0.));
#325=CARTESIAN_POINT('',(12.3,-1.49406909495977E-15,12.5));
#326=CARTESIAN_POINT('Origin',(9.8,-1.80023079474661E-15,12.5));
#327=CARTESIAN_POINT('',(12.3,-1.49406909495977E-15,0.));
#328=CARTESIAN_POINT('Origin',(9.8,-1.80023079474661E-15,0.));
#329=CARTESIAN_POINT('Origin',(6.92964645562816,-6.92964645562817,0.));
#330=CARTESIAN_POINT('',(9.42964645562816,-6.92964645562817,12.5));
#331=CARTESIAN_POINT('Origin',(6.92964645562816,-6.92964645562817,12.5));
#332=CARTESIAN_POINT('',(9.42964645562816,-6.92964645562817,0.));
#333=CARTESIAN_POINT('Origin',(6.92964645562816,-6.92964645562817,0.));
#334=CARTESIAN_POINT('Origin',(-1.20015386316441E-15,-9.8,0.));
#335=CARTESIAN_POINT('',(2.5,-9.8,12.5));
#336=CARTESIAN_POINT('Origin',(-1.20015386316441E-15,-9.8,12.5));
#337=CARTESIAN_POINT('',(2.5,-9.8,0.));
#338=CARTESIAN_POINT('Origin',(-1.20015386316441E-15,-9.8,0.));
#339=CARTESIAN_POINT('Origin',(-6.92964645562817,-6.92964645562816,0.));
#340=CARTESIAN_POINT('',(-4.42964645562817,-6.92964645562816,12.5));
#341=CARTESIAN_POINT('Origin',(-6.92964645562817,-6.92964645562816,12.5));
#342=CARTESIAN_POINT('',(-4.42964645562817,-6.92964645562816,0.));
#343=CARTESIAN_POINT('Origin',(-6.92964645562817,-6.92964645562816,0.));
#344=CARTESIAN_POINT('Origin',(-9.8,6.00076931582203E-16,0.));
#345=CARTESIAN_POINT('',(-7.3,9.06238631369041E-16,12.5));
#346=CARTESIAN_POINT('Origin',(-9.8,6.00076931582203E-16,12.5));
#347=CARTESIAN_POINT('',(-7.3,9.06238631369041E-16,0.));
#348=CARTESIAN_POINT('Origin',(-9.8,6.00076931582203E-16,0.));
#349=CARTESIAN_POINT('Origin',(-6.92964645562817,6.92964645562817,0.));
#350=CARTESIAN_POINT('',(-4.42964645562817,6.92964645562817,12.5));
#351=CARTESIAN_POINT('Origin',(-6.92964645562817,6.92964645562817,12.5));
#352=CARTESIAN_POINT('',(-4.42964645562817,6.92964645562817,0.));
#353=CARTESIAN_POINT('Origin',(-6.92964645562817,6.92964645562817,0.));
#354=CARTESIAN_POINT('Origin',(0.,9.8,0.));
#355=CARTESIAN_POINT('',(2.5,9.8,12.5));
#356=CARTESIAN_POINT('Origin',(0.,9.8,12.5));
#357=CARTESIAN_POINT('',(2.5,9.8,0.));
#358=CARTESIAN_POINT('Origin',(0.,9.8,0.));
#359=CARTESIAN_POINT('Origin',(0.,0.,0.));
#360=CARTESIAN_POINT('',(14.9,1.82472373072956E-15,0.));
#361=CARTESIAN_POINT('Origin',(0.,0.,0.));
#362=CARTESIAN_POINT('Origin',(-1.1455484761068E-15,-2.48372041303167E-16,
0.));
#363=CARTESIAN_POINT('Origin',(-1.1455484761068E-15,-2.48372041303167E-16,
12.5));
#364=UNCERTAINTY_MEASURE_WITH_UNIT(LENGTH_MEASURE(0.01),#368,
'DISTANCE_ACCURACY_VALUE',
'Maximum model space distance between geometric entities at asserted c
onnectivities');
#365=UNCERTAINTY_MEASURE_WITH_UNIT(LENGTH_MEASURE(1.E-6),#368,
'DISTANCE_ACCURACY_VALUE',
'Maximum model space distance between geometric entities at asserted c
onnectivities');
#366=(
GEOMETRIC_REPRESENTATION_CONTEXT(3)
GLOBAL_UNCERTAINTY_ASSIGNED_CONTEXT((#364))
GLOBAL_UNIT_ASSIGNED_CONTEXT((#368,#371,#369))
REPRESENTATION_CONTEXT('','3D')
);
#367=(
GEOMETRIC_REPRESENTATION_CONTEXT(3)
GLOBAL_UNCERTAINTY_ASSIGNED_CONTEXT((#365))
GLOBAL_UNIT_ASSIGNED_CONTEXT((#368,#371,#369))
REPRESENTATION_CONTEXT('','3D')
);
#368=(
LENGTH_UNIT()
NAMED_UNIT(*)
SI_UNIT(.MILLI.,.METRE.)
);
#369=(
NAMED_UNIT(*)
SI_UNIT($,.STERADIAN.)
SOLID_ANGLE_UNIT()
);
#370=DIMENSIONAL_EXPONENTS(0.,0.,0.,0.,0.,0.,0.);
#371=(
CONVERSION_BASED_UNIT('degree',#373)
NAMED_UNIT(#370)
PLANE_ANGLE_UNIT()
);
#372=(
NAMED_UNIT(*)
PLANE_ANGLE_UNIT()
SI_UNIT($,.RADIAN.)
);
#373=PLANE_ANGLE_MEASURE_WITH_UNIT(PLANE_ANGLE_MEASURE(0.01745329252),#372);
#374=SHAPE_DEFINITION_REPRESENTATION(#375,#376);
#375=PRODUCT_DEFINITION_SHAPE('',$,#378);
#376=SHAPE_REPRESENTATION('',(#217),#366);
#377=PRODUCT_DEFINITION_CONTEXT('part definition',#382,'design');
#378=PRODUCT_DEFINITION('05629850',
'Mehrfachdichteinsatz-25-BT-0020-05629850',#379,#377);
#379=PRODUCT_DEFINITION_FORMATION('',$,#384);
#380=PRODUCT_RELATED_PRODUCT_CATEGORY(
'Mehrfachdichteinsatz-25-BT-0020-05629850',
'Mehrfachdichteinsatz-25-BT-0020-05629850',(#384));
#381=APPLICATION_PROTOCOL_DEFINITION('international standard',
'automotive_design',2009,#382);
#382=APPLICATION_CONTEXT(
'Core Data for Automotive Mechanical Design Process');
#383=PRODUCT_CONTEXT('part definition',#382,'mechanical');
#384=PRODUCT('05629850','Mehrfachdichteinsatz-25-BT-0020-05629850',
'Mehrfachdichteinsatz f\X\FCr Euro-Top D= 29,8mm; 8x5,0',(#383));
#385=PRESENTATION_STYLE_ASSIGNMENT((#386));
#386=SURFACE_STYLE_USAGE(.BOTH.,#387);
#387=SURFACE_SIDE_STYLE('',(#388));
#388=SURFACE_STYLE_FILL_AREA(#389);
#389=FILL_AREA_STYLE('',(#390));
#390=FILL_AREA_STYLE_COLOUR('',#391);
#391=COLOUR_RGB('',0.250980392156863,0.250980392156863,0.250980392156863);
ENDSEC;
END-ISO-10303-21;
