ISO-10303-21;
HEADER;
/* Generated by software containing ST-Developer
 * from STEP Tools, Inc. (www.steptools.com) 
 */

FILE_DESCRIPTION(
/* description */ ('O-Ring M50'),
/* implementation_level */ '2;1');

FILE_NAME(
/* name */ 
'Y:\\Produkte\\Produktdaten_Produktdarstellungen\\Produktdarstellungen
_Bilder-3DModelle-etc\\3D-Modelle\\Kundenversionen\\Uhlman\\O-Ring\\RS
T-SL_Metrisch\\06400550-RST.stp',
/* time_stamp */ '2020-10-07T14:13:13+02:00',
/* author */ ('sl'),
/* organization */ (''),
/* preprocessor_version */ 'ST-DEVELOPER v16.5',
/* originating_system */ 'Autodesk Inventor 2017',
/* authorisation */ '');

FILE_SCHEMA (('AUTOMOTIVE_DESIGN { 1 0 10303 214 3 1 1 }'));
ENDSEC;

DATA;
#10=MECHANICAL_DESIGN_GEOMETRIC_PRESENTATION_REPRESENTATION('',(#13),#55);
#11=SHAPE_REPRESENTATION_RELATIONSHIP('SRR','None',#64,#12);
#12=ADVANCED_BREP_SHAPE_REPRESENTATION('',(#14),#54);
#13=STYLED_ITEM('',(#73),#14);
#14=MANIFOLD_SOLID_BREP('Volumenk\X\F6rper1',#28);
#15=FACE_OUTER_BOUND('',#16,.T.);
#16=EDGE_LOOP('',(#17,#19,#18,#20));
#17=ORIENTED_EDGE('',*,*,#21,.T.);
#18=ORIENTED_EDGE('',*,*,#21,.F.);
#19=ORIENTED_EDGE('',*,*,#22,.T.);
#20=ORIENTED_EDGE('',*,*,#22,.F.);
#21=EDGE_CURVE('',#23,#23,#24,.T.);
#22=EDGE_CURVE('',#23,#23,#25,.T.);
#23=VERTEX_POINT('',#51);
#24=CIRCLE('',#37,1.);
#25=CIRCLE('',#38,25.);
#26=TOROIDAL_SURFACE('',#36,24.,1.);
#27=ADVANCED_FACE('',(#15),#26,.T.);
#28=CLOSED_SHELL('',(#27));
#29=DATE_TIME_ROLE('creation_date');
#30=APPLIED_DATE_AND_TIME_ASSIGNMENT(#31,#29,(#66));
#31=DATE_AND_TIME(#32,#33);
#32=CALENDAR_DATE(2020,6,10);
#33=LOCAL_TIME(22,0,0.,#34);
#34=COORDINATED_UNIVERSAL_TIME_OFFSET(0,0,.BEHIND.);
#35=AXIS2_PLACEMENT_3D('placement',#47,#39,#40);
#36=AXIS2_PLACEMENT_3D('',#48,#41,#42);
#37=AXIS2_PLACEMENT_3D('',#49,#43,#44);
#38=AXIS2_PLACEMENT_3D('',#50,#45,#46);
#39=DIRECTION('axis',(0.,0.,1.));
#40=DIRECTION('refdir',(1.,0.,0.));
#41=DIRECTION('center_axis',(1.22464679914735E-16,1.,0.));
#42=DIRECTION('ref_axis',(0.,0.,1.));
#43=DIRECTION('center_axis',(-1.,1.22464679914735E-16,0.));
#44=DIRECTION('ref_axis',(0.,0.,1.));
#45=DIRECTION('center_axis',(-1.22464679914735E-16,-1.,0.));
#46=DIRECTION('ref_axis',(0.,0.,1.));
#47=CARTESIAN_POINT('',(0.,0.,0.));
#48=CARTESIAN_POINT('Origin',(4.66896592174928E-16,-5.82867087928207E-15,
0.));
#49=CARTESIAN_POINT('Origin',(4.66896592174928E-16,-5.82867087928207E-15,
24.));
#50=CARTESIAN_POINT('Origin',(4.66896592174928E-16,-5.82867087928207E-15,
0.));
#51=CARTESIAN_POINT('',(4.66896592174928E-16,-5.82867087928207E-15,25.));
#52=UNCERTAINTY_MEASURE_WITH_UNIT(LENGTH_MEASURE(0.01),#56,
'DISTANCE_ACCURACY_VALUE',
'Maximum model space distance between geometric entities at asserted c
onnectivities');
#53=UNCERTAINTY_MEASURE_WITH_UNIT(LENGTH_MEASURE(1.E-6),#56,
'DISTANCE_ACCURACY_VALUE',
'Maximum model space distance between geometric entities at asserted c
onnectivities');
#54=(
GEOMETRIC_REPRESENTATION_CONTEXT(3)
GLOBAL_UNCERTAINTY_ASSIGNED_CONTEXT((#52))
GLOBAL_UNIT_ASSIGNED_CONTEXT((#56,#59,#57))
REPRESENTATION_CONTEXT('','3D')
);
#55=(
GEOMETRIC_REPRESENTATION_CONTEXT(3)
GLOBAL_UNCERTAINTY_ASSIGNED_CONTEXT((#53))
GLOBAL_UNIT_ASSIGNED_CONTEXT((#56,#59,#57))
REPRESENTATION_CONTEXT('','3D')
);
#56=(
LENGTH_UNIT()
NAMED_UNIT(*)
SI_UNIT(.MILLI.,.METRE.)
);
#57=(
NAMED_UNIT(*)
SI_UNIT($,.STERADIAN.)
SOLID_ANGLE_UNIT()
);
#58=DIMENSIONAL_EXPONENTS(0.,0.,0.,0.,0.,0.,0.);
#59=(
CONVERSION_BASED_UNIT('degree',#61)
NAMED_UNIT(#58)
PLANE_ANGLE_UNIT()
);
#60=(
NAMED_UNIT(*)
PLANE_ANGLE_UNIT()
SI_UNIT($,.RADIAN.)
);
#61=PLANE_ANGLE_MEASURE_WITH_UNIT(PLANE_ANGLE_MEASURE(0.01745329252),#60);
#62=SHAPE_DEFINITION_REPRESENTATION(#63,#64);
#63=PRODUCT_DEFINITION_SHAPE('',$,#66);
#64=SHAPE_REPRESENTATION('',(#35),#54);
#65=PRODUCT_DEFINITION_CONTEXT('part definition',#70,'design');
#66=PRODUCT_DEFINITION('06400550','O-Ring-01-BT-0007-06400550',#67,#65);
#67=PRODUCT_DEFINITION_FORMATION('',$,#72);
#68=PRODUCT_RELATED_PRODUCT_CATEGORY('O-Ring-01-BT-0007-06400550',
'O-Ring-01-BT-0007-06400550',(#72));
#69=APPLICATION_PROTOCOL_DEFINITION('international standard',
'automotive_design',2009,#70);
#70=APPLICATION_CONTEXT(
'Core Data for Automotive Mechanical Design Process');
#71=PRODUCT_CONTEXT('part definition',#70,'mechanical');
#72=PRODUCT('06400550','O-Ring-01-BT-0007-06400550','O-Ring M50',(#71));
#73=PRESENTATION_STYLE_ASSIGNMENT((#74));
#74=SURFACE_STYLE_USAGE(.BOTH.,#75);
#75=SURFACE_SIDE_STYLE('',(#76));
#76=SURFACE_STYLE_FILL_AREA(#77);
#77=FILL_AREA_STYLE('',(#78));
#78=FILL_AREA_STYLE_COLOUR('',#79);
#79=COLOUR_RGB('',0.250980392156863,0.250980392156863,0.250980392156863);
ENDSEC;
END-ISO-10303-21;
