ISO-10303-21;
HEADER;
/* Generated by software containing ST-Developer
 * from STEP Tools, Inc. (www.steptools.com) 
 */

FILE_DESCRIPTION(
/* description */ ('Staubschutzscheibe'),
/* implementation_level */ '2;1');

FILE_NAME(
/* name */ 
'Y:\\Produkte\\Produktdaten_Produktdarstellungen\\Produktdarstellungen
_Bilder-3DModelle-etc\\3D-Modelle\\Kundenversionen\\Jacob\\RST-SL\\Sta
ubschutzscheibe\\08004409-RST.stp',
/* time_stamp */ '2020-10-06T16:00:08+02:00',
/* author */ ('sl'),
/* organization */ ('RST'),
/* preprocessor_version */ 'ST-DEVELOPER v16.5',
/* originating_system */ 'Autodesk Inventor 2017',
/* authorisation */ '');

FILE_SCHEMA (('AUTOMOTIVE_DESIGN { 1 0 10303 214 3 1 1 }'));
ENDSEC;

DATA;
#10=MECHANICAL_DESIGN_GEOMETRIC_PRESENTATION_REPRESENTATION('',(#13),#75);
#11=SHAPE_REPRESENTATION_RELATIONSHIP('SRR','None',#84,#12);
#12=ADVANCED_BREP_SHAPE_REPRESENTATION('',(#14),#74);
#13=STYLED_ITEM('',(#93),#14);
#14=MANIFOLD_SOLID_BREP('Volumenk\X\F6rper1',#39);
#15=PLANE('',#50);
#16=PLANE('',#51);
#17=FACE_BOUND('',#22,.T.);
#18=FACE_OUTER_BOUND('',#21,.T.);
#19=FACE_OUTER_BOUND('',#23,.T.);
#20=FACE_OUTER_BOUND('',#24,.T.);
#21=EDGE_LOOP('',(#31));
#22=EDGE_LOOP('',(#32));
#23=EDGE_LOOP('',(#33));
#24=EDGE_LOOP('',(#34));
#25=CIRCLE('',#48,6.75);
#26=CIRCLE('',#49,6.75);
#27=VERTEX_POINT('',#66);
#28=VERTEX_POINT('',#68);
#29=EDGE_CURVE('',#27,#27,#25,.T.);
#30=EDGE_CURVE('',#28,#28,#26,.T.);
#31=ORIENTED_EDGE('',*,*,#29,.F.);
#32=ORIENTED_EDGE('',*,*,#30,.F.);
#33=ORIENTED_EDGE('',*,*,#30,.T.);
#34=ORIENTED_EDGE('',*,*,#29,.T.);
#35=CYLINDRICAL_SURFACE('',#47,6.75);
#36=ADVANCED_FACE('',(#18,#17),#35,.T.);
#37=ADVANCED_FACE('',(#19),#15,.F.);
#38=ADVANCED_FACE('',(#20),#16,.T.);
#39=CLOSED_SHELL('',(#36,#37,#38));
#40=DATE_TIME_ROLE('creation_date');
#41=APPLIED_DATE_AND_TIME_ASSIGNMENT(#42,#40,(#86));
#42=DATE_AND_TIME(#43,#44);
#43=CALENDAR_DATE(2020,5,10);
#44=LOCAL_TIME(22,0,0.,#45);
#45=COORDINATED_UNIVERSAL_TIME_OFFSET(0,0,.BEHIND.);
#46=AXIS2_PLACEMENT_3D('placement',#64,#52,#53);
#47=AXIS2_PLACEMENT_3D('',#65,#54,#55);
#48=AXIS2_PLACEMENT_3D('',#67,#56,#57);
#49=AXIS2_PLACEMENT_3D('',#69,#58,#59);
#50=AXIS2_PLACEMENT_3D('',#70,#60,#61);
#51=AXIS2_PLACEMENT_3D('',#71,#62,#63);
#52=DIRECTION('axis',(0.,0.,1.));
#53=DIRECTION('refdir',(1.,0.,0.));
#54=DIRECTION('center_axis',(0.,0.,1.));
#55=DIRECTION('ref_axis',(-1.,0.,0.));
#56=DIRECTION('center_axis',(0.,0.,1.));
#57=DIRECTION('ref_axis',(-1.,0.,0.));
#58=DIRECTION('center_axis',(0.,0.,-1.));
#59=DIRECTION('ref_axis',(-1.,0.,0.));
#60=DIRECTION('center_axis',(0.,0.,1.));
#61=DIRECTION('ref_axis',(1.,0.,0.));
#62=DIRECTION('center_axis',(0.,0.,1.));
#63=DIRECTION('ref_axis',(1.,0.,0.));
#64=CARTESIAN_POINT('',(0.,0.,0.));
#65=CARTESIAN_POINT('Origin',(0.,0.,0.));
#66=CARTESIAN_POINT('',(6.75,8.26636589424463E-16,0.5));
#67=CARTESIAN_POINT('Origin',(0.,0.,0.5));
#68=CARTESIAN_POINT('',(6.75,8.26636589424463E-16,0.));
#69=CARTESIAN_POINT('Origin',(0.,0.,0.));
#70=CARTESIAN_POINT('Origin',(-8.91273808100303E-16,1.37064570941377E-16,
0.));
#71=CARTESIAN_POINT('Origin',(-8.91273808100303E-16,1.37064570941377E-16,
0.5));
#72=UNCERTAINTY_MEASURE_WITH_UNIT(LENGTH_MEASURE(0.01),#76,
'DISTANCE_ACCURACY_VALUE',
'Maximum model space distance between geometric entities at asserted c
onnectivities');
#73=UNCERTAINTY_MEASURE_WITH_UNIT(LENGTH_MEASURE(1.E-6),#76,
'DISTANCE_ACCURACY_VALUE',
'Maximum model space distance between geometric entities at asserted c
onnectivities');
#74=(
GEOMETRIC_REPRESENTATION_CONTEXT(3)
GLOBAL_UNCERTAINTY_ASSIGNED_CONTEXT((#72))
GLOBAL_UNIT_ASSIGNED_CONTEXT((#76,#79,#77))
REPRESENTATION_CONTEXT('','3D')
);
#75=(
GEOMETRIC_REPRESENTATION_CONTEXT(3)
GLOBAL_UNCERTAINTY_ASSIGNED_CONTEXT((#73))
GLOBAL_UNIT_ASSIGNED_CONTEXT((#76,#79,#77))
REPRESENTATION_CONTEXT('','3D')
);
#76=(
LENGTH_UNIT()
NAMED_UNIT(*)
SI_UNIT(.MILLI.,.METRE.)
);
#77=(
NAMED_UNIT(*)
SI_UNIT($,.STERADIAN.)
SOLID_ANGLE_UNIT()
);
#78=DIMENSIONAL_EXPONENTS(0.,0.,0.,0.,0.,0.,0.);
#79=(
CONVERSION_BASED_UNIT('degree',#81)
NAMED_UNIT(#78)
PLANE_ANGLE_UNIT()
);
#80=(
NAMED_UNIT(*)
PLANE_ANGLE_UNIT()
SI_UNIT($,.RADIAN.)
);
#81=PLANE_ANGLE_MEASURE_WITH_UNIT(PLANE_ANGLE_MEASURE(0.01745329252),#80);
#82=SHAPE_DEFINITION_REPRESENTATION(#83,#84);
#83=PRODUCT_DEFINITION_SHAPE('',$,#86);
#84=SHAPE_REPRESENTATION('',(#46),#74);
#85=PRODUCT_DEFINITION_CONTEXT('part definition',#90,'design');
#86=PRODUCT_DEFINITION('08004409',
'Staubschutzscheibe-02-BT-0001-08004409',#87,#85);
#87=PRODUCT_DEFINITION_FORMATION('',$,#92);
#88=PRODUCT_RELATED_PRODUCT_CATEGORY(
'Staubschutzscheibe-02-BT-0001-08004409',
'Staubschutzscheibe-02-BT-0001-08004409',(#92));
#89=APPLICATION_PROTOCOL_DEFINITION('international standard',
'automotive_design',2009,#90);
#90=APPLICATION_CONTEXT(
'Core Data for Automotive Mechanical Design Process');
#91=PRODUCT_CONTEXT('part definition',#90,'mechanical');
#92=PRODUCT('08004409','Staubschutzscheibe-02-BT-0001-08004409',
'Staubschutzscheibe',(#91));
#93=PRESENTATION_STYLE_ASSIGNMENT((#94));
#94=SURFACE_STYLE_USAGE(.BOTH.,#95);
#95=SURFACE_SIDE_STYLE('',(#96));
#96=SURFACE_STYLE_FILL_AREA(#97);
#97=FILL_AREA_STYLE('',(#98));
#98=FILL_AREA_STYLE_COLOUR('',#99);
#99=COLOUR_RGB('',0.925490196078431,0.945098039215686,0.937254901960784);
ENDSEC;
END-ISO-10303-21;
