ISO-10303-21;
HEADER;
/* Generated by software containing ST-Developer
 * from STEP Tools, Inc. (www.steptools.com) 
 */

FILE_DESCRIPTION(
/* description */ ('Blindstopfen X3 4-6,5'),
/* implementation_level */ '2;1');

FILE_NAME(
/* name */ 
'Y:\\Produkte\\Produktdaten_Produktdarstellungen\\Produktdarstellungen
_Bilder-3DModelle-etc\\3D-Modelle\\Kundenversionen\\Bimed\\RST-SL\\Bli
ndstopfen-X3\\Standard\\82007512X3-RST.stp',
/* time_stamp */ '2021-03-22T13:45:11+01:00',
/* author */ ('sl'),
/* organization */ (''),
/* preprocessor_version */ 'ST-DEVELOPER v16.5',
/* originating_system */ 'Autodesk Inventor 2017',
/* authorisation */ '');

FILE_SCHEMA (('AUTOMOTIVE_DESIGN { 1 0 10303 214 3 1 1 }'));
ENDSEC;

DATA;
#10=MECHANICAL_DESIGN_GEOMETRIC_PRESENTATION_REPRESENTATION('',(#88,#86,
#87,#85,#91,#93,#89,#92,#90),#183);
#11=SHAPE_REPRESENTATION_RELATIONSHIP('SRR','None',#192,#12);
#12=ADVANCED_BREP_SHAPE_REPRESENTATION('',(#13),#182);
#13=MANIFOLD_SOLID_BREP('Volumenk\X\F6rper1',#102);
#14=SPHERICAL_SURFACE('',#120,4.645);
#15=TOROIDAL_SURFACE('',#117,1.2,1.);
#16=CYLINDRICAL_SURFACE('',#115,2.2);
#17=CYLINDRICAL_SURFACE('',#124,3.2);
#18=PLANE('',#113);
#19=PLANE('',#119);
#20=PLANE('',#122);
#21=FACE_BOUND('',#36,.T.);
#22=FACE_BOUND('',#38,.T.);
#23=FACE_BOUND('',#40,.T.);
#24=FACE_BOUND('',#42,.T.);
#25=FACE_BOUND('',#46,.T.);
#26=FACE_BOUND('',#48,.T.);
#27=FACE_OUTER_BOUND('',#35,.T.);
#28=FACE_OUTER_BOUND('',#37,.T.);
#29=FACE_OUTER_BOUND('',#39,.T.);
#30=FACE_OUTER_BOUND('',#41,.T.);
#31=FACE_OUTER_BOUND('',#43,.T.);
#32=FACE_OUTER_BOUND('',#44,.T.);
#33=FACE_OUTER_BOUND('',#45,.T.);
#34=FACE_OUTER_BOUND('',#47,.T.);
#35=EDGE_LOOP('',(#70));
#36=EDGE_LOOP('',(#71));
#37=EDGE_LOOP('',(#72));
#38=EDGE_LOOP('',(#73));
#39=EDGE_LOOP('',(#74));
#40=EDGE_LOOP('',(#75));
#41=EDGE_LOOP('',(#76));
#42=EDGE_LOOP('',(#77));
#43=EDGE_LOOP('',(#78));
#44=EDGE_LOOP('',(#79));
#45=EDGE_LOOP('',(#80));
#46=EDGE_LOOP('',(#81));
#47=EDGE_LOOP('',(#82));
#48=EDGE_LOOP('',(#83));
#49=CIRCLE('',#111,3.);
#50=CIRCLE('',#112,3.2);
#51=CIRCLE('',#114,2.2);
#52=CIRCLE('',#116,2.2);
#53=CIRCLE('',#118,1.2);
#54=CIRCLE('',#121,4.6);
#55=CIRCLE('',#123,3.2);
#56=VERTEX_POINT('',#159);
#57=VERTEX_POINT('',#161);
#58=VERTEX_POINT('',#164);
#59=VERTEX_POINT('',#167);
#60=VERTEX_POINT('',#170);
#61=VERTEX_POINT('',#174);
#62=VERTEX_POINT('',#177);
#63=EDGE_CURVE('',#56,#56,#49,.T.);
#64=EDGE_CURVE('',#57,#57,#50,.T.);
#65=EDGE_CURVE('',#58,#58,#51,.T.);
#66=EDGE_CURVE('',#59,#59,#52,.T.);
#67=EDGE_CURVE('',#60,#60,#53,.T.);
#68=EDGE_CURVE('',#61,#61,#54,.T.);
#69=EDGE_CURVE('',#62,#62,#55,.T.);
#70=ORIENTED_EDGE('',*,*,#63,.F.);
#71=ORIENTED_EDGE('',*,*,#64,.T.);
#72=ORIENTED_EDGE('',*,*,#63,.T.);
#73=ORIENTED_EDGE('',*,*,#65,.F.);
#74=ORIENTED_EDGE('',*,*,#66,.F.);
#75=ORIENTED_EDGE('',*,*,#65,.T.);
#76=ORIENTED_EDGE('',*,*,#67,.F.);
#77=ORIENTED_EDGE('',*,*,#66,.T.);
#78=ORIENTED_EDGE('',*,*,#67,.T.);
#79=ORIENTED_EDGE('',*,*,#68,.F.);
#80=ORIENTED_EDGE('',*,*,#68,.T.);
#81=ORIENTED_EDGE('',*,*,#69,.F.);
#82=ORIENTED_EDGE('',*,*,#64,.F.);
#83=ORIENTED_EDGE('',*,*,#69,.T.);
#84=CONICAL_SURFACE('',#110,3.1,45.);
#85=STYLED_ITEM('',(#202),#94);
#86=STYLED_ITEM('',(#202),#95);
#87=STYLED_ITEM('',(#202),#96);
#88=STYLED_ITEM('',(#202),#97);
#89=STYLED_ITEM('',(#202),#98);
#90=STYLED_ITEM('',(#202),#99);
#91=STYLED_ITEM('',(#202),#100);
#92=STYLED_ITEM('',(#202),#101);
#93=STYLED_ITEM('',(#201),#13);
#94=ADVANCED_FACE('',(#27,#21),#84,.T.);
#95=ADVANCED_FACE('',(#28,#22),#18,.T.);
#96=ADVANCED_FACE('',(#29,#23),#16,.F.);
#97=ADVANCED_FACE('',(#30,#24),#15,.F.);
#98=ADVANCED_FACE('',(#31),#19,.T.);
#99=ADVANCED_FACE('',(#32),#14,.T.);
#100=ADVANCED_FACE('',(#33,#25),#20,.T.);
#101=ADVANCED_FACE('',(#34,#26),#17,.T.);
#102=CLOSED_SHELL('',(#94,#95,#96,#97,#98,#99,#100,#101));
#103=DATE_TIME_ROLE('creation_date');
#104=APPLIED_DATE_AND_TIME_ASSIGNMENT(#105,#103,(#194));
#105=DATE_AND_TIME(#106,#107);
#106=CALENDAR_DATE(2021,21,3);
#107=LOCAL_TIME(23,0,0.,#108);
#108=COORDINATED_UNIVERSAL_TIME_OFFSET(0,0,.BEHIND.);
#109=AXIS2_PLACEMENT_3D('placement',#157,#125,#126);
#110=AXIS2_PLACEMENT_3D('',#158,#127,#128);
#111=AXIS2_PLACEMENT_3D('',#160,#129,#130);
#112=AXIS2_PLACEMENT_3D('',#162,#131,#132);
#113=AXIS2_PLACEMENT_3D('',#163,#133,#134);
#114=AXIS2_PLACEMENT_3D('',#165,#135,#136);
#115=AXIS2_PLACEMENT_3D('',#166,#137,#138);
#116=AXIS2_PLACEMENT_3D('',#168,#139,#140);
#117=AXIS2_PLACEMENT_3D('',#169,#141,#142);
#118=AXIS2_PLACEMENT_3D('',#171,#143,#144);
#119=AXIS2_PLACEMENT_3D('',#172,#145,#146);
#120=AXIS2_PLACEMENT_3D('',#173,#147,#148);
#121=AXIS2_PLACEMENT_3D('',#175,#149,#150);
#122=AXIS2_PLACEMENT_3D('',#176,#151,#152);
#123=AXIS2_PLACEMENT_3D('',#178,#153,#154);
#124=AXIS2_PLACEMENT_3D('',#179,#155,#156);
#125=DIRECTION('axis',(0.,0.,1.));
#126=DIRECTION('refdir',(1.,0.,0.));
#127=DIRECTION('center_axis',(-1.,0.,0.));
#128=DIRECTION('ref_axis',(0.,1.,0.));
#129=DIRECTION('center_axis',(1.,0.,0.));
#130=DIRECTION('ref_axis',(0.,0.,-1.));
#131=DIRECTION('center_axis',(1.,0.,0.));
#132=DIRECTION('ref_axis',(0.,0.,-1.));
#133=DIRECTION('center_axis',(1.,0.,0.));
#134=DIRECTION('ref_axis',(0.,0.,-1.));
#135=DIRECTION('center_axis',(1.,0.,0.));
#136=DIRECTION('ref_axis',(0.,0.,-1.));
#137=DIRECTION('center_axis',(1.,0.,0.));
#138=DIRECTION('ref_axis',(0.,1.,0.));
#139=DIRECTION('center_axis',(1.,0.,0.));
#140=DIRECTION('ref_axis',(0.,0.,-1.));
#141=DIRECTION('center_axis',(1.,0.,0.));
#142=DIRECTION('ref_axis',(0.,0.,-1.));
#143=DIRECTION('center_axis',(1.,0.,0.));
#144=DIRECTION('ref_axis',(0.,0.,-1.));
#145=DIRECTION('center_axis',(1.,0.,0.));
#146=DIRECTION('ref_axis',(0.,0.,-1.));
#147=DIRECTION('center_axis',(0.,0.,1.));
#148=DIRECTION('ref_axis',(1.,0.,0.));
#149=DIRECTION('center_axis',(1.,0.,0.));
#150=DIRECTION('ref_axis',(0.,0.,-1.));
#151=DIRECTION('center_axis',(1.,0.,0.));
#152=DIRECTION('ref_axis',(0.,0.,-1.));
#153=DIRECTION('center_axis',(1.,0.,0.));
#154=DIRECTION('ref_axis',(0.,0.,-1.));
#155=DIRECTION('center_axis',(1.,0.,0.));
#156=DIRECTION('ref_axis',(0.,1.,0.));
#157=CARTESIAN_POINT('',(0.,0.,0.));
#158=CARTESIAN_POINT('Origin',(-0.1,0.,0.));
#159=CARTESIAN_POINT('',(6.84227765783602E-48,3.,0.));
#160=CARTESIAN_POINT('Origin',(0.,0.,0.));
#161=CARTESIAN_POINT('',(-0.2,3.2,0.));
#162=CARTESIAN_POINT('Origin',(-0.2,0.,0.));
#163=CARTESIAN_POINT('Origin',(5.01767028241308E-48,2.2,0.));
#164=CARTESIAN_POINT('',(0.,2.2,0.));
#165=CARTESIAN_POINT('Origin',(0.,0.,0.));
#166=CARTESIAN_POINT('Origin',(-6.25,0.,0.));
#167=CARTESIAN_POINT('',(-12.5,2.2,0.));
#168=CARTESIAN_POINT('Origin',(-12.5,0.,0.));
#169=CARTESIAN_POINT('Origin',(-12.5,0.,0.));
#170=CARTESIAN_POINT('',(-13.5,1.2,0.));
#171=CARTESIAN_POINT('Origin',(-13.5,0.,0.));
#172=CARTESIAN_POINT('Origin',(-13.5,1.38777878078145E-15,0.));
#173=CARTESIAN_POINT('Origin',(-11.355,5.55111512312578E-16,0.));
#174=CARTESIAN_POINT('',(-12.,4.6,0.));
#175=CARTESIAN_POINT('Origin',(-12.,0.,0.));
#176=CARTESIAN_POINT('Origin',(-12.,3.2,0.));
#177=CARTESIAN_POINT('',(-12.,3.2,0.));
#178=CARTESIAN_POINT('Origin',(-12.,0.,0.));
#179=CARTESIAN_POINT('Origin',(-6.1,0.,0.));
#180=UNCERTAINTY_MEASURE_WITH_UNIT(LENGTH_MEASURE(0.01),#184,
'DISTANCE_ACCURACY_VALUE',
'Maximum model space distance between geometric entities at asserted c
onnectivities');
#181=UNCERTAINTY_MEASURE_WITH_UNIT(LENGTH_MEASURE(1.E-6),#184,
'DISTANCE_ACCURACY_VALUE',
'Maximum model space distance between geometric entities at asserted c
onnectivities');
#182=(
GEOMETRIC_REPRESENTATION_CONTEXT(3)
GLOBAL_UNCERTAINTY_ASSIGNED_CONTEXT((#180))
GLOBAL_UNIT_ASSIGNED_CONTEXT((#184,#187,#185))
REPRESENTATION_CONTEXT('','3D')
);
#183=(
GEOMETRIC_REPRESENTATION_CONTEXT(3)
GLOBAL_UNCERTAINTY_ASSIGNED_CONTEXT((#181))
GLOBAL_UNIT_ASSIGNED_CONTEXT((#184,#187,#185))
REPRESENTATION_CONTEXT('','3D')
);
#184=(
LENGTH_UNIT()
NAMED_UNIT(*)
SI_UNIT(.MILLI.,.METRE.)
);
#185=(
NAMED_UNIT(*)
SI_UNIT($,.STERADIAN.)
SOLID_ANGLE_UNIT()
);
#186=DIMENSIONAL_EXPONENTS(0.,0.,0.,0.,0.,0.,0.);
#187=(
CONVERSION_BASED_UNIT('degree',#189)
NAMED_UNIT(#186)
PLANE_ANGLE_UNIT()
);
#188=(
NAMED_UNIT(*)
PLANE_ANGLE_UNIT()
SI_UNIT($,.RADIAN.)
);
#189=PLANE_ANGLE_MEASURE_WITH_UNIT(PLANE_ANGLE_MEASURE(0.01745329252),#188);
#190=SHAPE_DEFINITION_REPRESENTATION(#191,#192);
#191=PRODUCT_DEFINITION_SHAPE('',$,#194);
#192=SHAPE_REPRESENTATION('',(#109),#182);
#193=PRODUCT_DEFINITION_CONTEXT('part definition',#198,'design');
#194=PRODUCT_DEFINITION('82007512X3',
'Blindstopfen-01-BT-0001-82007512X3',#195,#193);
#195=PRODUCT_DEFINITION_FORMATION('',$,#200);
#196=PRODUCT_RELATED_PRODUCT_CATEGORY(
'Blindstopfen-01-BT-0001-82007512X3',
'Blindstopfen-01-BT-0001-82007512X3',(#200));
#197=APPLICATION_PROTOCOL_DEFINITION('international standard',
'automotive_design',2009,#198);
#198=APPLICATION_CONTEXT(
'Core Data for Automotive Mechanical Design Process');
#199=PRODUCT_CONTEXT('part definition',#198,'mechanical');
#200=PRODUCT('82007512X3','Blindstopfen-01-BT-0001-82007512X3',
'Blindstopfen X3 4-6,5',(#199));
#201=PRESENTATION_STYLE_ASSIGNMENT((#203));
#202=PRESENTATION_STYLE_ASSIGNMENT((#204));
#203=SURFACE_STYLE_USAGE(.BOTH.,#205);
#204=SURFACE_STYLE_USAGE(.BOTH.,#206);
#205=SURFACE_SIDE_STYLE('',(#207));
#206=SURFACE_SIDE_STYLE('',(#208));
#207=SURFACE_STYLE_FILL_AREA(#209);
#208=SURFACE_STYLE_FILL_AREA(#210);
#209=FILL_AREA_STYLE('',(#211));
#210=FILL_AREA_STYLE('',(#212));
#211=FILL_AREA_STYLE_COLOUR('',#213);
#212=FILL_AREA_STYLE_COLOUR('',#214);
#213=COLOUR_RGB('',0.858823529411765,0.823529411764706,0.705882352941177);
#214=COLOUR_RGB('',0.0196078431372549,0.0196078431372549,0.0196078431372549);
ENDSEC;
END-ISO-10303-21;
