ISO-10303-21;
HEADER;
/* Generated by software containing ST-Developer
 * from STEP Tools, Inc. (www.steptools.com) 
 */

FILE_DESCRIPTION(
/* description */ ('Blindstopfen X3 7-12 (7,5-12)'),
/* implementation_level */ '2;1');

FILE_NAME(
/* name */ 
'Y:\\Produkte\\Produktdaten_Produktdarstellungen\\Produktdarstellungen
_Bilder-3DModelle-etc\\3D-Modelle\\Kundenversionen\\Bimed\\RST-SL\\Bli
ndstopfen-X3\\Standard\\82007520X3-RST.stp',
/* time_stamp */ '2021-03-22T13:50:29+01:00',
/* author */ ('sl'),
/* organization */ (''),
/* preprocessor_version */ 'ST-DEVELOPER v16.5',
/* originating_system */ 'Autodesk Inventor 2017',
/* authorisation */ '');

FILE_SCHEMA (('AUTOMOTIVE_DESIGN { 1 0 10303 214 3 1 1 }'));
ENDSEC;

DATA;
#10=MECHANICAL_DESIGN_GEOMETRIC_PRESENTATION_REPRESENTATION('',(#119,#120,
#117,#118,#124,#123,#121,#125,#126,#122),#294);
#11=SHAPE_REPRESENTATION_RELATIONSHIP('SRR','None',#303,#12);
#12=ADVANCED_BREP_SHAPE_REPRESENTATION('',(#13),#293);
#13=MANIFOLD_SOLID_BREP('Volumenk\X\F6rper1',#136);
#14=(
BOUNDED_CURVE()
B_SPLINE_CURVE(2,(#245,#246,#247),.UNSPECIFIED.,.F.,.F.)
B_SPLINE_CURVE_WITH_KNOTS((3,3),(6.84609312184978E-16,1.5707963267949),
 .UNSPECIFIED.)
CURVE()
GEOMETRIC_REPRESENTATION_ITEM()
RATIONAL_B_SPLINE_CURVE((1.,0.707106781186548,1.))
REPRESENTATION_ITEM('')
);
#15=(
BOUNDED_CURVE()
B_SPLINE_CURVE(2,(#284,#285,#286),.UNSPECIFIED.,.F.,.F.)
B_SPLINE_CURVE_WITH_KNOTS((3,3),(0.0253191094123344,1.57111683832836),
 .UNSPECIFIED.)
CURVE()
GEOMETRIC_REPRESENTATION_ITEM()
RATIONAL_B_SPLINE_CURVE((1.,0.715889654287481,1.))
REPRESENTATION_ITEM('')
);
#16=(
BOUNDED_SURFACE()
B_SPLINE_SURFACE(2,2,((#217,#218,#219,#220,#221,#222,#223,#224,#225),(#226,
#227,#228,#229,#230,#231,#232,#233,#234),(#235,#236,#237,#238,#239,#240,
#241,#242,#243)),.UNSPECIFIED.,.F.,.T.,.F.)
B_SPLINE_SURFACE_WITH_KNOTS((3,3),(3,2,2,2,3),(-1.5707963267949,-6.84609312184978E-16),
(-3.14159265358979,-1.5707963267949,0.,1.5707963267949,3.14159265358979),
 .UNSPECIFIED.)
GEOMETRIC_REPRESENTATION_ITEM()
RATIONAL_B_SPLINE_SURFACE(((1.,0.707106781186548,1.,0.707106781186548,1.,
0.707106781186548,1.,0.707106781186548,1.),(0.707106781186548,0.500000000000001,
0.707106781186548,0.500000000000001,0.707106781186548,0.500000000000001,
0.707106781186548,0.500000000000001,0.707106781186548),(1.,0.707106781186548,
1.,0.707106781186548,1.,0.707106781186548,1.,0.707106781186548,1.)))
REPRESENTATION_ITEM('')
SURFACE()
);
#17=(
BOUNDED_SURFACE()
B_SPLINE_SURFACE(2,2,((#252,#253,#254,#255,#256,#257,#258,#259,#260),(#261,
#262,#263,#264,#265,#266,#267,#268,#269),(#270,#271,#272,#273,#274,#275,
#276,#277,#278)),.UNSPECIFIED.,.F.,.T.,.F.)
B_SPLINE_SURFACE_WITH_KNOTS((3,3),(3,2,2,2,3),(-1.57111683832836,-0.0253191094123344),
(-3.14159265358979,-1.5707963267949,0.,1.5707963267949,3.14159265358979),
 .UNSPECIFIED.)
GEOMETRIC_REPRESENTATION_ITEM()
RATIONAL_B_SPLINE_SURFACE(((1.,0.707106781186548,1.,0.707106781186548,1.,
0.707106781186548,1.,0.707106781186548,1.),(0.715889654287481,0.506210429127971,
0.715889654287481,0.506210429127971,0.715889654287481,0.506210429127971,
0.715889654287481,0.506210429127971,0.715889654287481),(1.,0.707106781186548,
1.,0.707106781186548,1.,0.707106781186548,1.,0.707106781186548,1.)))
REPRESENTATION_ITEM('')
SURFACE()
);
#18=CYLINDRICAL_SURFACE('',#151,4.5);
#19=CYLINDRICAL_SURFACE('',#161,5.99999999999999);
#20=TOROIDAL_SURFACE('',#149,4.6,0.1);
#21=PLANE('',#147);
#22=PLANE('',#156);
#23=PLANE('',#159);
#24=FACE_BOUND('',#40,.T.);
#25=FACE_BOUND('',#42,.T.);
#26=FACE_BOUND('',#44,.T.);
#27=FACE_BOUND('',#46,.T.);
#28=FACE_BOUND('',#51,.T.);
#29=FACE_BOUND('',#53,.T.);
#30=FACE_OUTER_BOUND('',#39,.T.);
#31=FACE_OUTER_BOUND('',#41,.T.);
#32=FACE_OUTER_BOUND('',#43,.T.);
#33=FACE_OUTER_BOUND('',#45,.T.);
#34=FACE_OUTER_BOUND('',#47,.T.);
#35=FACE_OUTER_BOUND('',#48,.T.);
#36=FACE_OUTER_BOUND('',#49,.T.);
#37=FACE_OUTER_BOUND('',#50,.T.);
#38=FACE_OUTER_BOUND('',#52,.T.);
#39=EDGE_LOOP('',(#90));
#40=EDGE_LOOP('',(#91));
#41=EDGE_LOOP('',(#92));
#42=EDGE_LOOP('',(#93));
#43=EDGE_LOOP('',(#94));
#44=EDGE_LOOP('',(#95));
#45=EDGE_LOOP('',(#96,#97));
#46=EDGE_LOOP('',(#98));
#47=EDGE_LOOP('',(#99,#100,#101,#102,#103,#104));
#48=EDGE_LOOP('',(#105,#106));
#49=EDGE_LOOP('',(#107,#108,#109,#110));
#50=EDGE_LOOP('',(#111,#112));
#51=EDGE_LOOP('',(#113));
#52=EDGE_LOOP('',(#114));
#53=EDGE_LOOP('',(#115));
#54=CIRCLE('',#145,5.9);
#55=CIRCLE('',#146,6.);
#56=CIRCLE('',#148,4.6);
#57=CIRCLE('',#150,4.5);
#58=CIRCLE('',#152,4.49999999999999);
#59=CIRCLE('',#153,4.49999999999999);
#60=CIRCLE('',#154,1.49999999999999);
#61=CIRCLE('',#155,1.49999999999999);
#62=CIRCLE('',#157,7.89999999999998);
#63=CIRCLE('',#158,7.89999999999998);
#64=CIRCLE('',#160,5.99999999999999);
#65=VERTEX_POINT('',#202);
#66=VERTEX_POINT('',#204);
#67=VERTEX_POINT('',#207);
#68=VERTEX_POINT('',#210);
#69=VERTEX_POINT('',#213);
#70=VERTEX_POINT('',#214);
#71=VERTEX_POINT('',#244);
#72=VERTEX_POINT('',#248);
#73=VERTEX_POINT('',#279);
#74=VERTEX_POINT('',#280);
#75=VERTEX_POINT('',#283);
#76=VERTEX_POINT('',#288);
#77=EDGE_CURVE('',#65,#65,#54,.T.);
#78=EDGE_CURVE('',#66,#66,#55,.T.);
#79=EDGE_CURVE('',#67,#67,#56,.T.);
#80=EDGE_CURVE('',#68,#68,#57,.T.);
#81=EDGE_CURVE('',#69,#70,#58,.T.);
#82=EDGE_CURVE('',#70,#69,#59,.T.);
#83=EDGE_CURVE('',#70,#71,#14,.T.);
#84=EDGE_CURVE('',#72,#71,#60,.T.);
#85=EDGE_CURVE('',#71,#72,#61,.T.);
#86=EDGE_CURVE('',#73,#74,#62,.T.);
#87=EDGE_CURVE('',#74,#73,#63,.T.);
#88=EDGE_CURVE('',#74,#75,#15,.T.);
#89=EDGE_CURVE('',#76,#76,#64,.T.);
#90=ORIENTED_EDGE('',*,*,#77,.F.);
#91=ORIENTED_EDGE('',*,*,#78,.T.);
#92=ORIENTED_EDGE('',*,*,#77,.T.);
#93=ORIENTED_EDGE('',*,*,#79,.F.);
#94=ORIENTED_EDGE('',*,*,#80,.F.);
#95=ORIENTED_EDGE('',*,*,#79,.T.);
#96=ORIENTED_EDGE('',*,*,#81,.F.);
#97=ORIENTED_EDGE('',*,*,#82,.F.);
#98=ORIENTED_EDGE('',*,*,#80,.T.);
#99=ORIENTED_EDGE('',*,*,#81,.T.);
#100=ORIENTED_EDGE('',*,*,#83,.T.);
#101=ORIENTED_EDGE('',*,*,#84,.F.);
#102=ORIENTED_EDGE('',*,*,#85,.F.);
#103=ORIENTED_EDGE('',*,*,#83,.F.);
#104=ORIENTED_EDGE('',*,*,#82,.T.);
#105=ORIENTED_EDGE('',*,*,#84,.T.);
#106=ORIENTED_EDGE('',*,*,#85,.T.);
#107=ORIENTED_EDGE('',*,*,#86,.F.);
#108=ORIENTED_EDGE('',*,*,#87,.F.);
#109=ORIENTED_EDGE('',*,*,#88,.T.);
#110=ORIENTED_EDGE('',*,*,#88,.F.);
#111=ORIENTED_EDGE('',*,*,#86,.T.);
#112=ORIENTED_EDGE('',*,*,#87,.T.);
#113=ORIENTED_EDGE('',*,*,#89,.F.);
#114=ORIENTED_EDGE('',*,*,#78,.F.);
#115=ORIENTED_EDGE('',*,*,#89,.T.);
#116=CONICAL_SURFACE('',#144,5.95,45.);
#117=STYLED_ITEM('',(#313),#127);
#118=STYLED_ITEM('',(#313),#128);
#119=STYLED_ITEM('',(#313),#129);
#120=STYLED_ITEM('',(#313),#130);
#121=STYLED_ITEM('',(#313),#131);
#122=STYLED_ITEM('',(#313),#132);
#123=STYLED_ITEM('',(#313),#133);
#124=STYLED_ITEM('',(#313),#134);
#125=STYLED_ITEM('',(#313),#135);
#126=STYLED_ITEM('',(#312),#13);
#127=ADVANCED_FACE('',(#30,#24),#116,.T.);
#128=ADVANCED_FACE('',(#31,#25),#21,.T.);
#129=ADVANCED_FACE('',(#32,#26),#20,.T.);
#130=ADVANCED_FACE('',(#33,#27),#18,.F.);
#131=ADVANCED_FACE('',(#34),#16,.T.);
#132=ADVANCED_FACE('',(#35),#22,.T.);
#133=ADVANCED_FACE('',(#36),#17,.F.);
#134=ADVANCED_FACE('',(#37,#28),#23,.T.);
#135=ADVANCED_FACE('',(#38,#29),#19,.T.);
#136=CLOSED_SHELL('',(#127,#128,#129,#130,#131,#132,#133,#134,#135));
#137=DATE_TIME_ROLE('creation_date');
#138=APPLIED_DATE_AND_TIME_ASSIGNMENT(#139,#137,(#305));
#139=DATE_AND_TIME(#140,#141);
#140=CALENDAR_DATE(2021,21,3);
#141=LOCAL_TIME(23,0,0.,#142);
#142=COORDINATED_UNIVERSAL_TIME_OFFSET(0,0,.BEHIND.);
#143=AXIS2_PLACEMENT_3D('placement',#200,#162,#163);
#144=AXIS2_PLACEMENT_3D('',#201,#164,#165);
#145=AXIS2_PLACEMENT_3D('',#203,#166,#167);
#146=AXIS2_PLACEMENT_3D('',#205,#168,#169);
#147=AXIS2_PLACEMENT_3D('',#206,#170,#171);
#148=AXIS2_PLACEMENT_3D('',#208,#172,#173);
#149=AXIS2_PLACEMENT_3D('',#209,#174,#175);
#150=AXIS2_PLACEMENT_3D('',#211,#176,#177);
#151=AXIS2_PLACEMENT_3D('',#212,#178,#179);
#152=AXIS2_PLACEMENT_3D('',#215,#180,#181);
#153=AXIS2_PLACEMENT_3D('',#216,#182,#183);
#154=AXIS2_PLACEMENT_3D('',#249,#184,#185);
#155=AXIS2_PLACEMENT_3D('',#250,#186,#187);
#156=AXIS2_PLACEMENT_3D('',#251,#188,#189);
#157=AXIS2_PLACEMENT_3D('',#281,#190,#191);
#158=AXIS2_PLACEMENT_3D('',#282,#192,#193);
#159=AXIS2_PLACEMENT_3D('',#287,#194,#195);
#160=AXIS2_PLACEMENT_3D('',#289,#196,#197);
#161=AXIS2_PLACEMENT_3D('',#290,#198,#199);
#162=DIRECTION('axis',(0.,0.,1.));
#163=DIRECTION('refdir',(1.,0.,0.));
#164=DIRECTION('center_axis',(-1.,9.49838663512279E-16,0.));
#165=DIRECTION('ref_axis',(9.25185853854298E-16,1.,0.));
#166=DIRECTION('center_axis',(1.,-9.49838663512279E-16,0.));
#167=DIRECTION('ref_axis',(0.,0.,-1.));
#168=DIRECTION('center_axis',(1.,-9.49838663512279E-16,0.));
#169=DIRECTION('ref_axis',(0.,0.,-1.));
#170=DIRECTION('center_axis',(1.,-9.49838663512279E-16,0.));
#171=DIRECTION('ref_axis',(0.,0.,-1.));
#172=DIRECTION('center_axis',(1.,-9.49838663512279E-16,0.));
#173=DIRECTION('ref_axis',(0.,0.,-1.));
#174=DIRECTION('center_axis',(1.,-9.49838663512279E-16,0.));
#175=DIRECTION('ref_axis',(0.,0.,-1.));
#176=DIRECTION('center_axis',(1.,-9.49838663512279E-16,0.));
#177=DIRECTION('ref_axis',(0.,0.,-1.));
#178=DIRECTION('center_axis',(1.,-9.49838663512279E-16,0.));
#179=DIRECTION('ref_axis',(9.25185853854298E-16,1.,0.));
#180=DIRECTION('center_axis',(1.,-9.49838663512279E-16,0.));
#181=DIRECTION('ref_axis',(0.,0.,-1.));
#182=DIRECTION('center_axis',(1.,-9.49838663512279E-16,0.));
#183=DIRECTION('ref_axis',(0.,0.,-1.));
#184=DIRECTION('center_axis',(1.,-9.49838663512279E-16,0.));
#185=DIRECTION('ref_axis',(0.,0.,-1.));
#186=DIRECTION('center_axis',(1.,-9.49838663512279E-16,0.));
#187=DIRECTION('ref_axis',(0.,0.,-1.));
#188=DIRECTION('center_axis',(1.,-9.49838663512279E-16,0.));
#189=DIRECTION('ref_axis',(0.,0.,-1.));
#190=DIRECTION('center_axis',(1.,-9.49838663512279E-16,0.));
#191=DIRECTION('ref_axis',(0.,0.,-1.));
#192=DIRECTION('center_axis',(1.,-9.49838663512279E-16,0.));
#193=DIRECTION('ref_axis',(0.,0.,-1.));
#194=DIRECTION('center_axis',(1.,-9.49838663512279E-16,0.));
#195=DIRECTION('ref_axis',(0.,0.,-1.));
#196=DIRECTION('center_axis',(1.,-9.49838663512279E-16,0.));
#197=DIRECTION('ref_axis',(0.,0.,-1.));
#198=DIRECTION('center_axis',(1.,-9.49838663512279E-16,0.));
#199=DIRECTION('ref_axis',(9.25185853854298E-16,1.,0.));
#200=CARTESIAN_POINT('',(0.,0.,0.));
#201=CARTESIAN_POINT('Origin',(-0.0500000000000056,4.74919331756191E-17,
0.));
#202=CARTESIAN_POINT('',(0.,5.9,0.));
#203=CARTESIAN_POINT('Origin',(-5.55111512312578E-15,4.93038065763132E-30,
0.));
#204=CARTESIAN_POINT('',(-0.1,6.,0.));
#205=CARTESIAN_POINT('Origin',(-0.100000000000006,9.49838663512332E-17,
0.));
#206=CARTESIAN_POINT('Origin',(0.,4.6,0.));
#207=CARTESIAN_POINT('',(0.,4.6,0.));
#208=CARTESIAN_POINT('Origin',(-4.44089209850063E-15,3.94430452610506E-30,
0.));
#209=CARTESIAN_POINT('Origin',(-0.100000000000005,9.49838663512323E-17,
0.));
#210=CARTESIAN_POINT('',(-0.1,4.5,0.));
#211=CARTESIAN_POINT('Origin',(-0.100000000000005,9.49838663512323E-17,
0.));
#212=CARTESIAN_POINT('Origin',(-6.55,6.22144324600543E-15,0.));
#213=CARTESIAN_POINT('',(-13.,4.5,0.));
#214=CARTESIAN_POINT('',(-13.,1.23479026256596E-14,4.49999999999999));
#215=CARTESIAN_POINT('Origin',(-13.,1.23479026256596E-14,0.));
#216=CARTESIAN_POINT('Origin',(-13.,1.23479026256596E-14,0.));
#217=CARTESIAN_POINT('Ctrl Pts',(-16.,1.51974186161965E-14,1.49999999999999));
#218=CARTESIAN_POINT('Ctrl Pts',(-16.,-1.49999999999997,1.49999999999999));
#219=CARTESIAN_POINT('Ctrl Pts',(-16.,-1.49999999999997,0.));
#220=CARTESIAN_POINT('Ctrl Pts',(-16.,-1.49999999999997,-1.49999999999999));
#221=CARTESIAN_POINT('Ctrl Pts',(-16.,1.51974186161965E-14,-1.49999999999999));
#222=CARTESIAN_POINT('Ctrl Pts',(-16.,1.5,-1.49999999999999));
#223=CARTESIAN_POINT('Ctrl Pts',(-16.,1.5,0.));
#224=CARTESIAN_POINT('Ctrl Pts',(-16.,1.5,1.49999999999999));
#225=CARTESIAN_POINT('Ctrl Pts',(-16.,1.51974186161965E-14,1.49999999999999));
#226=CARTESIAN_POINT('Ctrl Pts',(-16.,1.51974186161965E-14,4.49999999999999));
#227=CARTESIAN_POINT('Ctrl Pts',(-16.,-4.49999999999997,4.49999999999999));
#228=CARTESIAN_POINT('Ctrl Pts',(-16.,-4.49999999999997,1.97215226305253E-30));
#229=CARTESIAN_POINT('Ctrl Pts',(-16.,-4.49999999999997,-4.49999999999999));
#230=CARTESIAN_POINT('Ctrl Pts',(-16.,1.51974186161965E-14,-4.49999999999999));
#231=CARTESIAN_POINT('Ctrl Pts',(-16.,4.5,-4.49999999999999));
#232=CARTESIAN_POINT('Ctrl Pts',(-16.,4.5,-1.97215226305253E-30));
#233=CARTESIAN_POINT('Ctrl Pts',(-16.,4.5,4.49999999999999));
#234=CARTESIAN_POINT('Ctrl Pts',(-16.,1.51974186161965E-14,4.49999999999999));
#235=CARTESIAN_POINT('Ctrl Pts',(-13.,1.23479026256596E-14,4.49999999999999));
#236=CARTESIAN_POINT('Ctrl Pts',(-13.,-4.49999999999998,4.49999999999999));
#237=CARTESIAN_POINT('Ctrl Pts',(-13.,-4.49999999999998,0.));
#238=CARTESIAN_POINT('Ctrl Pts',(-13.,-4.49999999999998,-4.49999999999999));
#239=CARTESIAN_POINT('Ctrl Pts',(-13.,1.23479026256596E-14,-4.49999999999999));
#240=CARTESIAN_POINT('Ctrl Pts',(-13.,4.5,-4.49999999999999));
#241=CARTESIAN_POINT('Ctrl Pts',(-13.,4.5,0.));
#242=CARTESIAN_POINT('Ctrl Pts',(-13.,4.5,4.49999999999999));
#243=CARTESIAN_POINT('Ctrl Pts',(-13.,1.23479026256596E-14,4.49999999999999));
#244=CARTESIAN_POINT('',(-16.,1.51974186161965E-14,1.49999999999999));
#245=CARTESIAN_POINT('Ctrl Pts',(-13.,1.23479026256596E-14,4.49999999999999));
#246=CARTESIAN_POINT('Ctrl Pts',(-16.,1.51974186161965E-14,4.49999999999999));
#247=CARTESIAN_POINT('Ctrl Pts',(-16.,1.51974186161965E-14,1.49999999999999));
#248=CARTESIAN_POINT('',(-16.,1.5,0.));
#249=CARTESIAN_POINT('Origin',(-16.,1.51974186161965E-14,0.));
#250=CARTESIAN_POINT('Origin',(-16.,1.51974186161965E-14,0.));
#251=CARTESIAN_POINT('Origin',(-16.,1.52655665885959E-14,0.));
#252=CARTESIAN_POINT('Ctrl Pts',(-20.7,1.96616603347042E-14,1.63172426959068E-16));
#253=CARTESIAN_POINT('Ctrl Pts',(-20.7,1.94984879077451E-14,1.63172426959068E-16));
#254=CARTESIAN_POINT('Ctrl Pts',(-20.7,1.94984879077451E-14,0.));
#255=CARTESIAN_POINT('Ctrl Pts',(-20.7,1.94984879077451E-14,-1.63172426959068E-16));
#256=CARTESIAN_POINT('Ctrl Pts',(-20.7,1.96616603347042E-14,-1.63172426959068E-16));
#257=CARTESIAN_POINT('Ctrl Pts',(-20.7,1.98248327616632E-14,-1.63172426959068E-16));
#258=CARTESIAN_POINT('Ctrl Pts',(-20.7,1.98248327616632E-14,0.));
#259=CARTESIAN_POINT('Ctrl Pts',(-20.7,1.98248327616632E-14,1.63172426959068E-16));
#260=CARTESIAN_POINT('Ctrl Pts',(-20.7,1.96616603347042E-14,1.63172426959068E-16));
#261=CARTESIAN_POINT('Ctrl Pts',(-20.7024695217858,1.96640059819767E-14,
7.70493864781656));
#262=CARTESIAN_POINT('Ctrl Pts',(-20.7024695217858,-7.70493864781654,7.70493864781656));
#263=CARTESIAN_POINT('Ctrl Pts',(-20.7024695217858,-7.70493864781654,0.));
#264=CARTESIAN_POINT('Ctrl Pts',(-20.7024695217858,-7.70493864781654,-7.70493864781656));
#265=CARTESIAN_POINT('Ctrl Pts',(-20.7024695217858,1.96640059819767E-14,
-7.70493864781656));
#266=CARTESIAN_POINT('Ctrl Pts',(-20.7024695217858,7.70493864781658,-7.70493864781656));
#267=CARTESIAN_POINT('Ctrl Pts',(-20.7024695217858,7.70493864781658,0.));
#268=CARTESIAN_POINT('Ctrl Pts',(-20.7024695217858,7.70493864781658,7.70493864781656));
#269=CARTESIAN_POINT('Ctrl Pts',(-20.7024695217858,1.96640059819767E-14,
7.70493864781656));
#270=CARTESIAN_POINT('Ctrl Pts',(-13.,1.23479026256596E-14,7.89999999999998));
#271=CARTESIAN_POINT('Ctrl Pts',(-13.,-7.89999999999997,7.89999999999998));
#272=CARTESIAN_POINT('Ctrl Pts',(-13.,-7.89999999999997,0.));
#273=CARTESIAN_POINT('Ctrl Pts',(-13.,-7.89999999999997,-7.89999999999998));
#274=CARTESIAN_POINT('Ctrl Pts',(-13.,1.23479026256596E-14,-7.89999999999998));
#275=CARTESIAN_POINT('Ctrl Pts',(-13.,7.89999999999999,-7.89999999999998));
#276=CARTESIAN_POINT('Ctrl Pts',(-13.,7.89999999999999,0.));
#277=CARTESIAN_POINT('Ctrl Pts',(-13.,7.89999999999999,7.89999999999998));
#278=CARTESIAN_POINT('Ctrl Pts',(-13.,1.23479026256596E-14,7.89999999999998));
#279=CARTESIAN_POINT('',(-13.,7.9,0.));
#280=CARTESIAN_POINT('',(-13.,1.23479026256596E-14,7.89999999999998));
#281=CARTESIAN_POINT('Origin',(-13.,1.23479026256596E-14,0.));
#282=CARTESIAN_POINT('Origin',(-13.,1.23479026256596E-14,0.));
#283=CARTESIAN_POINT('',(-20.7,-5.37876410951126E-15,0.));
#284=CARTESIAN_POINT('Ctrl Pts',(-13.,1.23479026256596E-14,7.89999999999998));
#285=CARTESIAN_POINT('Ctrl Pts',(-20.7024695217858,1.96640059819767E-14,
7.70493864781656));
#286=CARTESIAN_POINT('Ctrl Pts',(-20.7,1.96616603347042E-14,1.63172426959068E-16));
#287=CARTESIAN_POINT('Origin',(-13.,6.,0.));
#288=CARTESIAN_POINT('',(-13.,6.,0.));
#289=CARTESIAN_POINT('Origin',(-13.,1.23479026256596E-14,0.));
#290=CARTESIAN_POINT('Origin',(-6.55000000000001,6.22144324600543E-15,0.));
#291=UNCERTAINTY_MEASURE_WITH_UNIT(LENGTH_MEASURE(0.01),#295,
'DISTANCE_ACCURACY_VALUE',
'Maximum model space distance between geometric entities at asserted c
onnectivities');
#292=UNCERTAINTY_MEASURE_WITH_UNIT(LENGTH_MEASURE(1.E-6),#295,
'DISTANCE_ACCURACY_VALUE',
'Maximum model space distance between geometric entities at asserted c
onnectivities');
#293=(
GEOMETRIC_REPRESENTATION_CONTEXT(3)
GLOBAL_UNCERTAINTY_ASSIGNED_CONTEXT((#291))
GLOBAL_UNIT_ASSIGNED_CONTEXT((#295,#298,#296))
REPRESENTATION_CONTEXT('','3D')
);
#294=(
GEOMETRIC_REPRESENTATION_CONTEXT(3)
GLOBAL_UNCERTAINTY_ASSIGNED_CONTEXT((#292))
GLOBAL_UNIT_ASSIGNED_CONTEXT((#295,#298,#296))
REPRESENTATION_CONTEXT('','3D')
);
#295=(
LENGTH_UNIT()
NAMED_UNIT(*)
SI_UNIT(.MILLI.,.METRE.)
);
#296=(
NAMED_UNIT(*)
SI_UNIT($,.STERADIAN.)
SOLID_ANGLE_UNIT()
);
#297=DIMENSIONAL_EXPONENTS(0.,0.,0.,0.,0.,0.,0.);
#298=(
CONVERSION_BASED_UNIT('degree',#300)
NAMED_UNIT(#297)
PLANE_ANGLE_UNIT()
);
#299=(
NAMED_UNIT(*)
PLANE_ANGLE_UNIT()
SI_UNIT($,.RADIAN.)
);
#300=PLANE_ANGLE_MEASURE_WITH_UNIT(PLANE_ANGLE_MEASURE(0.01745329252),#299);
#301=SHAPE_DEFINITION_REPRESENTATION(#302,#303);
#302=PRODUCT_DEFINITION_SHAPE('',$,#305);
#303=SHAPE_REPRESENTATION('',(#143),#293);
#304=PRODUCT_DEFINITION_CONTEXT('part definition',#309,'design');
#305=PRODUCT_DEFINITION('82007520X3',
'Blindstopfen-01-BT-0001-82007520X3',#306,#304);
#306=PRODUCT_DEFINITION_FORMATION('',$,#311);
#307=PRODUCT_RELATED_PRODUCT_CATEGORY(
'Blindstopfen-01-BT-0001-82007520X3',
'Blindstopfen-01-BT-0001-82007520X3',(#311));
#308=APPLICATION_PROTOCOL_DEFINITION('international standard',
'automotive_design',2009,#309);
#309=APPLICATION_CONTEXT(
'Core Data for Automotive Mechanical Design Process');
#310=PRODUCT_CONTEXT('part definition',#309,'mechanical');
#311=PRODUCT('82007520X3','Blindstopfen-01-BT-0001-82007520X3',
'Blindstopfen X3 7-12 (7,5-12)',(#310));
#312=PRESENTATION_STYLE_ASSIGNMENT((#314));
#313=PRESENTATION_STYLE_ASSIGNMENT((#315));
#314=SURFACE_STYLE_USAGE(.BOTH.,#316);
#315=SURFACE_STYLE_USAGE(.BOTH.,#317);
#316=SURFACE_SIDE_STYLE('',(#318));
#317=SURFACE_SIDE_STYLE('',(#319));
#318=SURFACE_STYLE_FILL_AREA(#320);
#319=SURFACE_STYLE_FILL_AREA(#321);
#320=FILL_AREA_STYLE('',(#322));
#321=FILL_AREA_STYLE('',(#323));
#322=FILL_AREA_STYLE_COLOUR('',#324);
#323=FILL_AREA_STYLE_COLOUR('',#325);
#324=COLOUR_RGB('',0.858823529411765,0.823529411764706,0.705882352941177);
#325=COLOUR_RGB('',0.0196078431372549,0.0196078431372549,0.0196078431372549);
ENDSEC;
END-ISO-10303-21;
